Social Distortion - Reach For The Sky Chords & Tabs

 

Reach For The Sky Chords & Tabs

Social Distortion Chords & Tabs

Version: 1 Type: Tab 2 ratings
1 star 2 stars 3 stars 4 stars 5 stars
comments

Reach For The Sky Tab

Social Distortion
Reach For The Sky
by Wolfstrike
wolfstrike2@usinmail.com

(guitar tuned down 1/2 step, pay attention to picking)
(u= up, d= down, strum previous chord)


  intro

E: --------------------------------------------------------|
B: ------------------------------3------------3------------|
G: --4-------------4-------------2------------2------------|
D: --4-------------4-------------0------------0------------|
A: --2--d-u--d-u---2--d-u--d-u---2--d-u--d-u--2--d-u--d-u--|
E: --------------------------------------------------------|

E: --------------------------------------------------------|
B: --5-------------5-------------7------------7------(7)---|
G: --4-------------4-------------4------------4------(4)---|
D: --2-------------2-------------4------------4------(4)---|
A: --2--d-u--d-u---2--d-u--d-u---4--d-u--d-u--4------(4)---|
E: --------------------------------------------------------|


E: ------|
B: ------|
G: ------|
D: ------|
A: ------|
E: ---5--|





   (the guitar that plays this arpegiates the higher notes of the chords
   through the whole song)

   (play with slight harmonics)
   (heavier harmonics on first two notes during the second time)

E: ---------------------------------------------------|
B: --3-2--------3-2-------3-2-------2-3-3/5-3-2-------|
G: ------4----------4---------4-2-4-------------------|
D: --------4----------2-------------------------------|
A: ---------------------------------------------------|
E: ---------------------------------------------------|




   (rytham and main riff)
     
E: -------------------------------------------|
B: -------------------------------------------|
G: --4-------------------7--------------------|
D: --4---------5---------7----------7---------|
A: --2---------5---------5----------7---------|
E: ------------3---------5----------5---------|




    (bridge)(palm mute)

E: ----------------------------------------------------|
B: ----------------------------------------------------|
G: --4------------4------------4------------4----------|
D: --4------------4------------4------------4----------|
A: --2--d-u--d-u--2--d-u--d-u--2--d-u--d-u--2----------|
E: ------------------------------------------------5---|





(when i was young........)
(palm mute)
[ Tab from: http://www.guitartabs.cc/tabs/s/social_distortion/reach_for_the_sky_tab.html ]
E: ---------------------------------------------------------|
B: ---------------------------------------------------------|
G: --4------------4-----------------------------------------|
D: --4------------4---------------5------------5------------|
A: --2--d-u--d-u--2--d-u--d-u-----5------------5------------|
E: -------------------------------3--d-u--d-u--3--d-u--d-u--|

E: ---------------------------------------------------|
B: ---------------------------------------------------|
G: --7-------(7)--------------------------------------|
D: --7-------(7)-------7------------7-----------------|
A: --5-------(5)-------7------------7-----------------|
E: --5-------(5)-------5--d-u--d-u--5--d-u--d-u-------|







    (guitar fill)

E: ---------------------------------------------------------|
B: ---------------------------------------------------------|
G: --4-------------------------4----------------------------|
D: --4-------------------------4----------------------------|
A: --2-u-d-u-d-u-d-u-d-u-d-u---2-u-d-u-d-u-d-u-d-u-d--------|
E: -------------------------------------------------------5-|



  
   (play with slight harmonics)
   (heaver harmonics on first two notes during the second time)

E: ---------------------------------------------------|
B: --3-2--------3-2-------3-2-------2-3-3/5-3-2-------|
G: ------4----------4---------4-2-4-------------------|
D: --------4----------2-------------------------------|
A: ---------------------------------------------------|
E: ---------------------------------------------------|

   


  (random harmonics , last note higher)

E: -----------------------------------|
B: -----------------------------------|
G: --4-----(4)-----4-4-4-4-4-4-4-4----|
D: -----------------------------------|
A: -----------------------------------|
E: -----------------------------------|




   guitar noise

E: --------------------------------------|
B: ---x-0-x-0-x-0-----x-0-x-0-x-0-0-/2---|
G: ---x-0-x-0-x-0-----x-0-x-0-x-0-0-/2---|
D: ---x-x-x-x-x-0-----x-x-x-x-x-0-0-/2---|
A: ---x-x-x-x-x-0-----x-x-x-x-x-0-0-/2---|
E: --------------------------------------|

E: --------------------------------------|
B: ---x-0-x-0-x-0----------------(0)-----|
G: ---x-0-x-0-x-0----------------(0)-----|
D: ---x-x-x-x-x-0----------------(0)-----|
A: ---x-x-x-x-x-0----------------(0)-----|
E: --------------------------------------|








Comments