Social Distortion - Prison Bound Chords & Tabs

 

Prison Bound Chords & Tabs

Social Distortion Chords & Tabs

Version: 1 Type: Tab 0 ratings
1 star 2 stars 3 stars 4 stars 5 stars
comments

Prison Bound Tab

im tabbing this b/c its an awesome song and theres no other "good" tab of it. the
version im tabbing is the live at the roxy version so its tuned differently than
on the recorded version. this has to be close to 100% right! 

by the way, read the bottom at the orders to see how many times to play each part.
 
intro,verse,chorus
e------------------------------------------------|
b------------------------------------------------|    this is played 
g----------88888888--101010101010--88--66666666--|  strumming up and down.
d-66666666-88888888--101010101010--88--66666666--|   
a-66666666-66666666---8-8-8-8-8-8--66--44444444--| 
e-44444444---------------------------------------|


interlude: 
e-----------------------------------------------------------------|
b-----------------------------------------------------------------|         
g--------------------------------8--------------------------------|         
d------------8-8/10~-8-6~--8/10~--10-10-10-8-8-8-8h10-6-6-6h86-6--|
a-----6/8\6~-----------------------------------------------------8|
e--4--------------------------------------------------------------|
[ Tab from: http://www.guitartabs.cc/tabs/s/social_distortion/prison_bound_tab.html ]
solo:
e-----------------------------------------------|
b-----------------------------------------------|
g--------8----8-10-10b-10p8---8h10b10b10b10b----|cont>
d--8/10~---10---------------10------------------|
a-----------------------------------------------| 
e-----------------------------------------------|

e--------------------------------------------------|
b--------------------------------------------------|
g-------88--8888----8888--8888---8888h10b10b10b10--|
d-10-10~--10-----10-----10----10-------------------|
a--------------------------------------------------|
e--------------------------------------------------|


e------------------------------------------------------|
b---------9--------9--------9-----------------9--------|
g-10p8h10--10p8h10--10p8h10--10p8h10--10p8h10--10p8h10-|
d------------------------------------------------------|
a------------------------------------------------------|
e------------------------------------------------------|

right here play the interlude again...



outro:
e---------------------------------------|
b-----------8~--------------------------|
g------8~-8~--8~--10~--6~~--------------|
d-6~---8~---------10~--4~~-6~~~~--------|
a-6~---6~----------8~--4~~-4~~~~--------|
e-4~-----------------------4~~~~--------|


ORDER:
INTRO x2
INTERLUDE x1
VERSE x4
CHORUS x4
INTRO x2
VERSE x4
CHORUS x4
INTRO x2
INTERLUDE x1
SOLO x1
INTERLUDE x1
CHORUS x4
INTRO x2
OUTRO x1 (slows down)

VOTE HIGHLY! LEAVE MEAN COMMENTS!LOL 


JaKe!
Comments