Social Distortion - Moral Threat Chords & Tabs

 

Moral Threat Chords & Tabs

Social Distortion Chords & Tabs

Version: 1 Type: Bass Tab 0 ratings
1 star 2 stars 3 stars 4 stars 5 stars
comments

Moral Threat Bass Tab

intro.          verse.
g----------/   g------------------------------------------|
d----------/   d------------------------------------------|
a--5--5-5--/   a-5555------5555------5555------5555-------|
e-0-00-0---/   e-----0-1111----0-1111----0-1111----0-1111-|.repeat twice then

chorus...play over and over
g------------------------//-------------------||
d------------------------//-------------------||
a-55555555---------------//55555555-66-5-4-3-2||
e---------0-5-0-5-0-5-0-5//-------------------||

[ Tab from: http://www.guitartabs.cc/tabs/s/social_distortion/moral_threat_btab.html ]
                         solo.....
g---------------------||------------------------------------|
d---------------------||-------------------------2-3-000000-|
a-5555------5555---111||555555--------0-1-333333------------|
e-----0-1111----0-1---||------0-111111----------------------|

continue solo.....
g--------------------------------------|
d-----3333--------------3333-----------|
a-5555----3333-5555-5555----3333-5555--|
e--------------------------------------|
listen to the song for timing...its alright,i guess!
Comments