Social Distortion - Mommys Little Monster Chords & Tabs

 

Mommys Little Monster Chords & Tabs

Social Distortion Chords & Tabs

Version: 1 Type: Tab 0 ratings
1 star 2 stars 3 stars 4 stars 5 stars
comments

Mommys Little Monster Tab

   
Artist: Social Distortion
Song: Mommy's little monster
tabbed by: punklege
INTRO:
  E----10---10--------------------10--10-------|
  B----10---10---13-12-10-10-10---10--10-------|
  G----12b-------------------------------12b---|
  D--------------------------------------------|
  A--------------------------------------------|
  E--------------------------------------------|

  E--10-10--------------------10--10--10--10---|
  B--10-10-13-12-10-10-10-----10--10--10--10---|
  G----------------------12b-------------------|
  D--------------------------------------------|
  A--------------------------------------------|
  E--------------------------------------------|
[ Tab from: http://www.guitartabs.cc/tabs/s/social_distortion/mommys_little_monster_tab.html ]
  E-------10--10--------------10--10------10-10-|
  B-------10--10-13-12-10-10--10--10------10-10-|
  G--12b------------------------------12b-------|
  D---------------------------------------------|
  A---------------------------------------------|
  E---------------------------------------------|

VERSE:
    D5            G5            C5
  --------------------------------------------|
  --------------------------------------------|
  --7-7-7-7-7-7-----------------5-5-5-5-5-5---|
  --7-7-7-7-7-7---5-5-5-5-5-5---5-5-5-5-5-5---|
  --5-5-5-5-5-5---5-5-5-5-5-5---3-3-3-3-3-3---|
  ----------------3-3-3-3-3-3-----------------|

    D5
  ----------------|
  ----------------|
  --7-7-7-7-7-7---|
  --7-7-7-7-7-7---| repeat
  --5-5-5-5-5-5---|
  ----------------|

     The chorus is the same as the
verse, its just slower.

get in touch with me if you have any questions, or comments
Comments