Social Distortion - It Wasnt A Pretty Picture Chords & Tabs

 

It Wasnt A Pretty Picture Chords & Tabs

Social Distortion Chords & Tabs

Version: 1 Type: Bass Tab 0 ratings
1 star 2 stars 3 stars 4 stars 5 stars
comments

It Wasnt A Pretty Picture Bass Tab

   
-------------------------------------------------------------------------------
			 it wasnt a pretty picture - social distortion
-------------------------------------------------------------------------------

Tabbed By : ashton dayley
e-mail: ashton_sg@hotmail.com

[ Tab from: http://www.guitartabs.cc/tabs/s/social_distortion/it_wasnt_a_pretty_picture_btab.html ]
Tuning:standard
    into/verse
G|--------------------------------------------------------------------------------------|
D|--------------------------------------------------------------------------------------|
A|--7----7--7----7---7---7-3-3-3-5------------------------------------------------------|
E|-0--0-0--0--0-0--0--0-0---------------------------------------------------------------|
    chorus
G|------------------------------------------------------------|
D|------------------------------------------------------------|
A|------------------------------------------------------------|
E|---5-5-5-5--5-5-5-5--5-5-5-5--5-5-5-5--3-3-3-3--3-3-3-3--3--|
    after chorus
G|---------------------------------------------------------------------------------|
D|----------5-5-5-7----------------------------------------------------------------|
A|---7----7------------------------------------------------------------------------|
E|--0--0-0-------------------------------------------------------------------------|

into x1
verse x8
chorus x1
after chorus x4
verse x8
chorus x1
after chorus x4
verse x4
chorus x1
after chorus x4


| /  slide up
| \  slide down
| h  hammer-on
| p  pull-off
| ~  vibrato
| +  harmonic
| x  Mute note
Comments