Social Distortion - I Was Wrong Chords & Tabs

 

I Was Wrong Chords & Tabs

Social Distortion Chords & Tabs

Version: 2 Type: Tab 0 ratings
1 star 2 stars 3 stars 4 stars 5 stars
comments

I Was Wrong Tab

SONG: I WAS WRONG BY SOCIAL DISTORTION
\ = slide down to next pitch
/ = slide up to next pitch
~ = vibrato

SOLO:  (OVER CHORUS 4X)
e|----------------------------------------------------------------------|
B|-16-16-16~-16-16------------------------------------------------------|
G|----------------------------------------------------------------------|
D|---------------13/15-15-15-15-15-13/15\13-13-13-13-13-13-13------13---|
A|-----------------------------------------------------------13/15------|
E|----------------------------------------------------------------------|

e|----------------------------------------------------------------------|
B|----------------------------------------------------------------------|
G|----------------------------------------------------------------------|
D|-------13-13-13/15-15/17-17-17-17-17-17--15/17\15--15-15-15-15-15-----|
A|-13/15----------------------------------------------------------------|
E|----------------------------------------------------------------------|
[ Tab from: http://www.guitartabs.cc/tabs/s/social_distortion/i_was_wrong_tab_ver_2.html ]
e|----------------------------------------------------------------------|
B|-------------------------------------------------16-16-16~-16-16------|
G|----------------------------------------------------------------------|
D|-15\13-13-13-13-13-------13-------13-------13-15----------------------|
A|-------------------13/15----13/15----13/15----------------------------|
E|----------------------------------------------------------------------|

e|----------------------------------------------------------------------|
B|-16-16-16-16-16-------------------------------------------------------|
G|----------------12/13-15-12-13-12----12--12/13-15-12-13-12----12------|
D|----------------------------------13-----------------------13---------|
A|----------------------------------------------------------------------|
E|----------------------------------------------------------------------|

(faster slide)             (faster slide)
e|----------------------------------------------------------------------|
B|----------------------------------------------------------------------|
G|-12/13-15-12-13-12----12--12/13-15-12-13-12----12---------------------|
D|-------------------13-----------------------13------------------------|
A|----------------------------------------------------------------------|
E|----------------------------------------------------------------------|

e|----------------------------------------------------------------------|
B|----------------------------------------------------------------------|
G|-12/13-15-12-13-12----12--12/13-13-13-12----12~~~---------------------|
D|-------------------13--------------------13---------------------------|
A|----------------------------------------------------------------------|
E|----------------------------------------------------------------------|
Comments