Social Distortion - I Was Wrong Chords & Tabs

 

I Was Wrong Chords & Tabs

Social Distortion Chords & Tabs

Version: 1 Type: Bass Tab 0 ratings
1 star 2 stars 3 stars 4 stars 5 stars
comments

I Was Wrong Bass Tab

   
Title: I WAS WRONG(BASS) by Social Distortion
QuickTab
---------------------------------------------------------------
Legend:
-------
x mute
b bend
r release
h hammer on
p pull off
~ vibrato
/ slide up
\ slide down
^^ tremolo
Here's the Bass tab for "I Was Wrong" by Social Distortion.

 VERSE 1

G---------------------------------------|-----------------------------------
----|
D---------------------------------------|-----------------------------------
----|
A---666-666-66--------------------------|-----------------------------------
----|
E----------------6-666-6-666------------|-1-111-1111----4-4-44-444-4--------
----|


 CHORUS

G---------------------------------------|-----------------------------------
----|
D---------------------------------------|-----------------------------------
----|
A--6-6--6--6-6-6------------------------|-----------------------------------
----|
E--------------------6-6----6--6-6-6----|-1-1---1-1-1-1-----4-4----4-4--4-4-
----|


 VERSE 2
[ Tab from: http://www.guitartabs.cc/tabs/s/social_distortion/i_was_wrong_btab.html ]
G---------------------------------------|-----------------------------------
----|
D---------------------------------------|-----------------------------------
----|
A---666-666-66--------------------------|-----------------------------------
----|
E----------------6-666-6-666------------|-1-111-1111----4-4-44-444-4--------
----|


 BRIDGE

G---------------------------------------|-----------------------------------
----|
D---------------------------------------|-----------------------------------
----|
A---------------------------------------|-----------------------------------
----|
E-6-666-666-6---1-1-11-11-11------------|---4-4-4-44-4-44-----6-6666-66-6---
----|


 CHORUS WITH OUTRO

G---------------------------------------|-----------------------------------
----|
D---------------------------------------|-----------------------------------
----|
A--6-6--6--6-6-6------------------------|-----------------------------------
----|
E--------------------6-6----6--6-6-6----|-1-1---1-1-1-1---44-----4-h6-------
----|
 This song done by ear so send any corrections or comments to
helge@aracnet.com



Comments