Social Distortion - Dont Drag Me Down Chords & Tabs

 

Dont Drag Me Down Chords & Tabs

Social Distortion Chords & Tabs

Version: 5 Type: Tab 0 ratings
1 star 2 stars 3 stars 4 stars 5 stars
comments

Dont Drag Me Down Tab

-----------------------------------------------------------------------
Don’t Drag Me Down – Social Distortion
-----------------------------------------------------------------------

By: Blazehxcstl
   Intro
e|-3-----------3---3-3-1-3-1------------------------------------------|
B|---4-------4--------------------------------------------------------|
G|-----5--/5----------------------------------------------------------|
D|--------------------------------------------------------------------|
A|--------------------------------------------------------------------|
E|--------------------------------------------------------------------|
    Verse and Chorus
e|--------------------------------------------------------------------|
B|--------------------------------------------------------------------|
G|--5-----8-----------------------------------------------------------|
D|--5--6--8--8--------------------------------------------------------|
A|--3--6--6--8--------------------------------------------------------|
E|-----4-----6--------------------------------------------------------|
    Break
e|--------------------------------------------------------------------|
B|-------------------8-8-8-8--6-6-6-6---------------------------------|
G|-5-5-5-5--8-8-8-8---------------------------------------------------|
D|--------------------------------------------------------------------|
A|--------------------------------------------------------------------|
E|--------------------------------------------------------------------|
    Part 1 Solo
e|------888-----------------------------------------------------------|
B|------888------------------------------11-11^8----------------------|
G|-10br------(repeat a couple of times)----------10-10br—10^8----8----|
D|------------------------------------------------------------10------|
A|--------------------------------------------------------------------|
E|--------------------------------------------------------------------|
[ Tab from: http://www.guitartabs.cc/tabs/s/social_distortion/dont_drag_me_down_tab_ver_5.html ]
e|--------------------------------------------------------------------|
B|-----11-------------------11----------------------------------------|
G|-10b-----10br--8----8—10b----10br-----------------------------------|
D|-----------------10----------------10-10-10-10--10-10-10-10---------|
A|--------------------------------------------------------------------|
E|--------------------------------------------------------------------|
                                                  Back to chorus/verse
e|--------------------------------------------------------------------|
B|--------------------------------------------------------------------|
G|--------------------------------------------------------------------|
D|-10-10-10-10--10-10-10-10--10-10-10-10--/12--10—--------------------|
A|--------------------------------------------------------------------|
E|--------------------------------------------------------------------|
    Part 2 Solo
e|-----888------------------------------------------------------------|
B|-----888--------------------------11-11^8---------------------------|
G|-10b---------------------------------------10-10br-10^8----8-10-----|
D|--------repeat a couple of times------------------------10----------|
A|--------------------------------------------------------------------|
E|--------------------------------------------------------------------|



e|--------------------------------------------------------------------|
B|--------------------------------------------------------------------|
G|-10br-8----8—-10br-8----8—10br-8----8—-10br-8----8------------------|
D|--------10----------10-----------10-----------10--------------------|
A|--------------------------------------------------------------------|
E|--------------------------------------------------------------------|

e|-------------8888-----8-----8-----8-----8-----8--11-13--------------|
B|-----11-----------11b---11b---11b---11b---11b----------11-----------|
G|-10b----10r-----------------------------------------------10^8----8-|
D|---------------------------------------------------------------10---|
A|--------------------------------------------------------------------|
E|--------------------------------------------------------------------|
                                             
e|--------------------------------------------------------------------|
B|-----11-------------------------11----------------------------------|
G|-10b----10r—-10-10br-8----8-10b----10r---back to intro--------------|
D|-----------------------10----------------then chorus/verse----------|
A|--------------------------------------------------------------------|
E|--------------------------------------------------------------------|

Note on Part 2 of solo you hold the bend on 10 play 11 then release the bend on 10,
but make sure you play that release note to get the right sound. 
Comments