Social Distortion - Dont Drag Me Down Chords & Tabs

 

Dont Drag Me Down Chords & Tabs

Social Distortion Chords & Tabs

Version: 4 Type: Tab 0 ratings
1 star 2 stars 3 stars 4 stars 5 stars
comments

Dont Drag Me Down Tab

Social Distortion: Dont Drag Me Down

tabbed by:tom blizzard(tombuttcrunch116@hotmail.com)
this song is off the:white light,white heat,white trash album
its an amazing song.i think the only effect is a bit of distortion.

intro(bass)-same all through
G|--------------------------------------------------------------------
D|--------------------------------------------------------------------
A|---3-3-3-3-3-3-3-3-----------------6-6-6-6-6-6-6-6------------------
E|-------------------4-4-4-4-4-4-4-4-----------------6-6-6-6-6-6-6-6--

chord before main intro
e|--------------------------------------------------------------------
b|--------------------------------------------------------------------
g|---5----------------------------------------------------------------
d|---5----------------------------------------------------------------
a|---3----------------------------------------------------------------
E|--------------------------------------------------------------------
then rake up second string,then

gtr1
e|--------------------------------------------------------------------
b|--------------------------------------------------------------------
g|---55555555----------88888888---------------------------------------
d|---55555555-66666666-88888888-88888888------------------------------
a|---33333333-66666666-66666666-88888888------------------------------
E|------------44444444----------66666666------------------------------
[ Tab from: http://www.guitartabs.cc/tabs/s/social_distortion/dont_drag_me_down_tab_ver_4.html ]
gtr2
e|--------------------------------------------------------------------
b|--------------------------------------------------------------------
g|---12--8-5-3-5-8----12-12-12-12-12-8-12-10--------------------------
d|--------------------------------------------------------------------
a|--------------------------------------------------------------------
E|--------------------------------------------------------------------

verse(same as gtr1 for intro)
chorus(same)

solo
e|--------------------------------------------------------------------
b|--------------------------------------------------------------------
g|---55555555-88888888-1212121212121212-1010101010101010--------------
d|--------------------------------------------------------------------
a|--------------------------------------------------------------------
E|--------------------------------------------------------------------
     HO        HO         HO        HO         HO       HO
e|--------------------------------------------------------------------
b|---13----13--13----13--13----13--13----13--13----13--13----13-------
g|---10-12-12--10-12-12--10-12-12--10-12-12--10-12-12--10-12-12-------
d|--------------------------------------------------------------------
a|--------------------------------------------------------------------
E|--------------------------------------------------------------------
                    HO  PO HO PO
e|--------------------------------------------------------------------
b|---11-11-11-11-11---------------------------------------------------
g|-------------------8--10-8--10-8------------------------------------
d|---------------------------------10---------------------------------
a|--------------------------------------------------------------------
E|--------------------------------------------------------------------
just do alot of bending round that
Comments