Social Distortion - Dont Drag Me Down Chords & Tabs

 

Dont Drag Me Down Chords & Tabs

Social Distortion Chords & Tabs

Version: 2 Type: Tab 0 ratings
1 star 2 stars 3 stars 4 stars 5 stars
comments

Dont Drag Me Down Tab

   
 social distorsion-dont drag me down
 bass intro
E---8---4---------6----
a-----------6----------
d----------------------
g----------------------

rhythm is fairly obvious if u listen to it

guitar comes in with this
[ Tab from: http://www.guitartabs.cc/tabs/s/social_distortion/dont_drag_me_down_tab_ver_2.html ]
E---------------------------------------------
a---------------------------------------------
d--------------6------------------------------
g------8----5-----5---------------------------
b----8--------------4----6h8--8--8--4--8--4---
e---------------------------------------------

chords are
C G# D# Bb

havent been arsed to do the solos yet so sorry
but improvise around the c blues sclae and u wont sound too bad

nell
Comments