Social Distortion - Dont Drag Me Down Chords & Tabs

 

Dont Drag Me Down Chords & Tabs

Social Distortion Chords & Tabs

Version: 1 Type: Chords 0 ratings
1 star 2 stars 3 stars 4 stars 5 stars
comments

Dont Drag Me Down Chords

   
#----------------------------------PLEASE NOTE---------------------------------#
#This file is the author's own work and represents their interpretation of the #
#song. You may only use this file for private study, scholarship, or research. #
#------------------------------------------------------------------------------#
#

Subject: TAB : "Don't Drag me Down" by Social Distortion
Date:    Tue, 30 Sep 1997 06:50:19 -0700
From:    Jerry Kansky 





		            DON'T DRAG ME DOWN
				   By:
		     	    Social Distortion
			        Tabbed By:
			       Jerry Kansky

This song is track three on the new Social Distortion album : White Light White Heat White trash

The chords the guitar plays are the same through out the entire song
Just listen to the cd to get the rythm right.At one point the guitar stops and only bass plays
and at another point you palm mute the chords but the rytum stays the same..As I said , listen
to the cd.
[ Tab from: http://www.guitartabs.cc/tabs/s/social_distortion/dont_drag_me_down_crd.html ]
				C G# D# A#

The main riff goes something like this :
This is not it exactaly but it sounds ok when you play it...It does
in my band anyway....Enjoy

E-------------------------------------------------------------------
B-------------------------------------------------------------------
G-------------------------------------------------------------------
D-------------------------------------------------------------------
A--15--17--15-----------------15--17--17--17--17--17----------------
E-------------18--15--15--18----------------------------------------



The Bass Part for the song goes Like this:


G-------------------------------------------------------------------
D-------------------------------------------------------------------
A--3------6---------------------------------------------------------
E-----4------6------------------------------------------------------


You don't just hold the note , you play it in rhythm with the guitar
part...Listen to the cd to get it right. 

Comments