Social Distortion - Death Or Glory Chords & Tabs

 

Death Or Glory Chords & Tabs

Social Distortion Chords & Tabs

Version: 1 Type: Tab

Death Or Glory Tab

intro
-----------------|
------------1----|
-3---------------|
-3---------3-3-3-|
-1let ring-3---3-|
-----------1---1-| repeat 4 times
lead
the chorus chords are played during the lead.
-8\10-8\10-10\13-10-8-8-8-6-5-\6-6-6-5-3-\5-5-5-|
------------------------------------------------|
------------------------------------------------|
------------------------------------------------|
------------------------------------------------|
------------------------------------------------|
[ Tab from: http://www.guitartabs.cc/tabs/s/social_distortion/death_or_glory_tab.html ]
-8\10-8\10-10\13-10-8-8-8-6-5-\6-6-6-5-3-1-|
-------------------------------------------|
-------------------------------------------|
-------------------------------------------|
-------------------------------------------|
-------------------------------------------|
verse
----------------------------|
----------------------------|
-------5----3---------5-----|
-3-----5(6x)3(6x)3----5-----|(4x)
-3(6x)-3----1----3(4x)3-----|
-1---------------1----------| repeat 2 times
chorus
-----------------------|
-----------------------|
-3---------5-----------|
-3(5x)3----5(6x)3------|
-1----3(8x)3----3(8x)--|
------1---------1------| repeat 2 times
bridge
-----------------|
------------1----|
-3---------------|
-3---------3-3-3-|
-1let ring-3---3-|
-----------1---1-| repeat 8 times
outro lead
chorus chords during the lead.
-8\10-10-10-10-8----------------------------------|
----------------8-\10--10-10-8-8-\10-8--8---------|
--------------------------------------10-10-7-\10-|
--------------------------------------------------|
--------------------------------------------------|
--------------------------------------------------|

--------8----------------------------------------|
-10-8-10-10-8-10-10-10-8----10--12-10-7-5-7-10---|
-10---10-10---10---------10-10-\12-10-7-5-7-10---|
-------------------------------------------------|
-------------------------------------------------|
-------------------------------------------------|

song structure:
intro 4x
lead 1x
verse 2x
chorus 2x
verse 2x
chorus 2x
bridge 8x
lead 1x
verse 2x
chorus 4x
bridge 4x
outro lead x1

there you go, great cover.