Social Distortion - Dear Lover Chords & Tabs

 

Dear Lover Chords & Tabs

Social Distortion Chords & Tabs

Version: 3 Type: Tab 0 ratings
1 star 2 stars 3 stars 4 stars 5 stars
comments

Dear Lover Tab

   
intro

e)--0-0-000--0-0-000-----------2-2-222--|
B)--0-0-000--1-1-111-----------3-3-333--|
G)--0-0-000--0-0-000--0-0-000--2-2-222--|
D)--2-2-222--2-2-222--0-0-000--0-0-000--|
A)--2-2-222--3-3-333--2-2-222-----------|
E)--0-0-000-----------3-3-333-----------|

    Em       C        G	       D

verse

e)-------------------------------|
B)-------------------------------|
G)----------------5--5--5-7-7----|
D)--2--2--2-5-5---5--5--5-7-7----|
A)--2--2--2-5-5---3--3--3-5-5-0--|
E)--0--0--0-3-3-0----------------|

    E5      G5    C5      D5

chorus

e)---------------------------------------|
B)---------------------------------------|
G)-----------5-5-555-----------7-7-777---|
D)--2-2-222--5-5-555--5-5-555--7-7-777---|
A)--2-2-222--3-3-3330-5-5-555--5-5-5550--|
E)--0-0-0000----------3-3-3330-----------|

solo
[ Tab from: http://www.guitartabs.cc/tabs/s/social_distortion/dear_lover_tab_ver_3.html ]
e)-----------------------------------------------------------------|
B)-------------------------------------8--8--8-6-6-6-8--8--8-6-6-6-|
G)------------------------------4-6-4------------------------------|
D)--2--2-/5-7--2--2-/5-7--7--7-------------------------------------|
A)--2--2-------2--2------------------------------------------------|
E)--0--0-------0--0------------------------------------------------|


e)--------------------------------------------------------------------|
B)--4--4--4-------------------13--13--13-16-16-16-13--13--13-10-10-10-|
G)----------6-6-6-4--4--4-4-4-----------------------------------------|
D)--------------------------------------------------------------------|
A)--------------------------------------------------------------------|
E)--------------------------------------------------------------------|

e)---------------------------------------------------------------------|
B)--13--13--13-10-10-10-8--8--8-8-8------------------------------------|
G)--------------------------------------------------------------4-6-4--|
D)----------------------------------2--2-/5-7--2--2-/5-7--7--7---------|
A)----------------------------------2--2-------2--2--------------------|
E)----------------------------------0--0-------0--0--------------------|
Comments