Social Distortion - Crown Of Thorns Chords & Tabs

 

Crown Of Thorns Chords & Tabs

Social Distortion Chords & Tabs

Version: 1 Type: Tab 0 ratings
1 star 2 stars 3 stars 4 stars 5 stars
comments

Crown Of Thorns Tab

e|----------7--7--7--7--------|
B|----------7--7--7--7--------|
G|----------7--7--7--7--------|
D|-----7----9--9--9--9--------|
A|-7-9---9--9--9--9--9--------|
E|----------7--7--7--7--------|



[ Tab from: http://www.guitartabs.cc/tabs/s/social_distortion/crown_of_thorns_tab.html ]
e|----------5--5--5--5--------|
B|----------5--5--5--5--------|
G|----------6--6--6--6--------|
D|----------7--7--7--7--------|
A|-7-9-7-5--7--7--7--7--------|
E|----------5--5--5--5--------|


This is the way I play it.  You dont have to play with the bar chords, it will sound
just fine if you play with power chords, but I like the bar chords better.
Comments