Social Burn - Down Chords & Tabs

 

Down Chords & Tabs

Social Burn Chords & Tabs

Version: 1 Type: Tab 0 ratings
1 star 2 stars 3 stars 4 stars 5 stars
comments

Down Tab

   
Fig 1
D|xxxxxxxxxxxxxxxxxxxxxxxxxxxxxxxxxxxxxxxxxxxxxxxxxxxxxxxxxxxxxxxxxx
A|xxxxxxxxxxxxxxxxxxxxxxxxxxxxxxxxxxxxxxxxxxxxxxxxxxxxxxxxxxxxxxxxxx
F|xxxxxxxxxxxxxxxxxxxxxxxxxxxxxxxxxxxxxxxxxxxxxxxxxxxxxxxxxxxxxxxxxx
C|-7-----10-------10-----------10-------10--------------10-------10-
G|-7-7-7-10-10-10-10---7--7--7-10-10-10-10-7-7--7--7--7-10-10-10-10-
D|-5-5-5-8--8--8--8-5--5--5--5-8--8--8--8--5-5--5--5--5-8--8--8--8--
[ Tab from: http://www.guitartabs.cc/tabs/s/social_burn/down_tab.html ]
|xxxxxxxxxxxxxxxxxxxxxxxxxxxxxxxxxxxxxxxxxxxxxxxxxxxxxxxxxxxxxxxxxxx
|xxxxxxxxxxxxxxxxxxxxxxxxxxxxxxxxxxxxxxxxxxxxxxxxxxxxxxxxxxxxxxxxxxx
|xxxxxxxxxxxxxxxxxxxxxxxxxxxxxxxxxxxxxxxxxxxxxxxxxxxxxxxxxxxxxxxxxxx
|-----3-3-3-3-----3-------------------------------------------------
|-3-3-3-3-3-3-3-3-3-3-----------------------------------------------
|-1-1-1-1-1-1-1-1-1-1-5-5-5-0-0-0-0-0-0-5-5-5-0-0-0-0-0-0-5-5-5-0-0-

|xxxxxxxxxxxxxxxxxxxxxxxxxxxxxxxxxxxxxxxxxxxxxxxxxxxxxxxxxxxxxxx
|xxxxxxxxxxxxxxxxxxxxxxxxxxxxxxxxxxxxxxxxxxxxxxxxxxxxxxxxxxxxxxx
|xxxxxxxxxxxxxxxxxxxxxxxxxxxxxxxxxxxxxxxxxxxxxxxxxxxxxxxxxxxxxxx
|---------3-----3-------5-7-------------------------------------
|---------3-----3-------5-7-------------------------------------
|-0-0-0-0-1-1-1-1-1-1-1-3-5-5-5-5-0-0-0-0-0-0-5-5-5-0-0-0-0-0-0-

palm mute all
Comments