Soapdish - Tensionado Chords & Tabs

 

Tensionado Chords & Tabs

Soapdish Chords & Tabs

Version: 4 Type: Tab

Tensionado Tab

tensionado by soapdish
tabbed by justin carlo c
visit me at my friendster account justincarlo88@yahoo.com
yahoo messenger - jco_lead
uhm, nice song? yeah its nice

intro x3
strum
(clean)
--0---0-0------------------------------------|
--0---0-0------------------------------------|
--4---4-4------------------------------------|
--2---2-2------------------------------------|
--0---0-0------------------------------------|
---------------------------------------------|

verse
strumming
(acoustic sim)
well for the 2nd verse, may kasama nang clean bukod sa acoustic sim

tensionado... gulat din ako nung malaman...
--0-----------4---------4---3------5-----------|
--0-----------0---------0---0------------------|
--4-----------4---------4---4------4-----------|
--2-----------6---------6---6------4-----------|
--0-----------4---------4---4------2-----------|
-----------------------------------------------|
na hindi lang pala ako
------5-------------7-----------------------|
------6-------------8-----------------------|
------5-------------7-----------------------|
------0-------------0-----------------------|
------5-------------7-----------------------|
--------------------------------------------|

then start the sequence all over again..

chorus
(acoustic sim)
strumming
well for the 2nd chorus, may kasama nang clean bukod sa acoustic sim

at kung di malinaw pede bang huwag kang sumigaw
--------------0---------------------0-------|
--------------0---------------------5-------|
--------------6---------------------6-------|
--------------7---------------------6-------|
--------------5---------------------4-------|
--------------------------------------------|
[ Tab from: http://www.guitartabs.cc/tabs/s/soapdish/tensionado_tab_ver_4.html ]
di ko hahayaan lahat nito ay mawala
------------0-----------0---------|
------------0-----------5---------|
------------6-----------6---------|
------------7-----------6---------|
------------5-----------4---------|
----------------------------------|

nagtatanong sayo kung pwede pa ba tayo
-------0---------------0--------------------|
-------3---------------0--------------------|
-------4---------------7--------------------|
-------4---------------7--------------------|
-------2---------------5--------------------|
--------------------------------------------|

lead
(fat dist.)
/-bend
s-slide
H-hammer off
h-hammer on
----------------------------------------------------------------------12s14-|
--10-10-10-10-10/--10s12-9---9s10-7---10s12-12s14-12-10-12-14-12-10-12------|
------------------9--------9-------7-9--------------------------------------|
----------------------------------------------------------------------------|
----------------------------------------------------------------------------|
----------------------------------------------------------------------------|

--------------------------------------------------------------9----12-12s14-|
-14H12--12-----------------------------------------10---10-12---12----------|
------14--14-12h14-12------10-12-12s14-14------9-11---11--------------------|
-----------------------9-11---------------9-11------------------------------|
----------------------------------------------------------------------------|
----------------------------------------------------------------------------|

tnx to all who have inspired me play...G0D, my family, bea, friends/classmates, NU 107!
support our band freefall/ support our song tightrope!
freefall@yahoo.com (friendster account) \m/
please rate my tab