Soapdish - Sana Sinabi Chords & Tabs

 

Sana Sinabi Chords & Tabs

Soapdish Chords & Tabs

Version: 3 Type: Tab

Sana Sinabi Tab

Solo sa Sana Sinabi.. sana magustohan nyo….. 
Please support “KAPAYAS 200X”… Ü 

|-------------------------------------------------8---7-------|
|---------3—5b6—5--3--3—3s5---3-5b6--3--3-----------8—--5b6-5-|
|--------5-------------------5--------------------------------|
|---5---5-------------------5---------------------------------|
|-------------------------------------------------------------|
|-------------------------------------------------------------|


[ Tab from: http://www.guitartabs.cc/tabs/s/soapdish/sana_sinabi_tab_ver_3.html ]
|-------------------------------------------------------------|
|---------3—5b6—5--3--3—3s5---3-5b6--3--3---3s5---------------|
|--------5-------------------5-------------------5—5s7—7s6----|
|---5---5-------------------5---------------------------------|
|-------------------------------------------------------------|
|-------------------------------------------------------------|


Hehe….. kayo na bahala mag tyming…. 
add nyo ako sa friendster... rock_2cockn@yahoo.com