Soapdish - Sana Sinabi Chords & Tabs

 

Sana Sinabi Chords & Tabs

Soapdish Chords & Tabs

Version: 1 Type: Tab 0 ratings
1 star 2 stars 3 stars 4 stars 5 stars
comments

Sana Sinabi Tab

Sa aking nakikita sa myx live performance nila... parang ito yata.... pero try nyo
lng.... ά  --support our band "KAPAYAS 200X"


Intro (4x)
 Kau na lng ang bahala kung paano nyo tataymingin ung strumming at plucking. 
 |---6-------------------------------6------------6-------6-----|
 |---6---------------6-------6-------8------8--------8------7---|
 |---7-------7----------7-------7----7---7-----7-------7------8-|
 |---8----8------8--------8-------8--8--------------------------|
 |---8-------------------------------6--------------------------|
 |---6-------------------------------6--------------------------|

 Tapos sa may huli ng intro ay may ganitong tunog..
 |---6---8--|
 |----------|
 |----------|
 |----------|
 |----------|
 |----------|

Verse (Repeat lng ng repeat)
 |---6-------------------------------6------------6-------6-----|
 |---6---------------6-------6-------8------8--------8------7---|
 |---7-------7----------7-------7----7---7-----7-------7------8-|
 |---8----8------8--------8-------8--8--------------------------|
 |---8-------------------------------6--------------------------|
 |---6-------------------------------6--------------------------|
[ Tab from: http://www.guitartabs.cc/tabs/s/soapdish/sana_sinabi_tab.html ]
 Chorus (4x)
 |---5—5-5----6-6-6---|
 |---6—6-6----8-8-8---|
 |---7-7-7----8-8-8---|
 |---7-7-7----8-8-8---|
 |---x-x-x----x-x-x---|
 |---x-x-x----x-x-x---|
 
Pre - end of chorus
	
 |---6-------------------------------6------------6-------6-----|
 |---6---------------6-------6-------8------8--------8------7---|
 |---7-------7----------7-------7----7---7-----7-------7------8-|
 |---8----8------8--------8-------8--8--------------------------|
 |---8-------------------------------6--------------------------|
 |---6-------------------------------6--------------------------|

 |---6------------5---4-4-4-|
 |---6------6-----7---6-6-6-|
 |---7---7--------7---5-5-5-|
 |---8------------7---6-6-6-|
 |---8------------x---x-x-x-|
 |---6------------x---x-x-x-|

Repeat intro
Repeat Verse 
Repeat Chorus


Bridge (4x) (sabay kang kumaskas sa may lead na part)

|-----5---4-4-4-|
|-----7---6-6-6-|
|-----7---5-5-5-|
|-----7---6-6-6-|
|-----x---x-x-x-|
|-----x---x-x-x-|

Repeat intro 
Repeat chorus (matagal tong part na to…)

 (Sa end tapos ng chorus ay ito yata..)

 |---5—5-5----6-6-6---7-7---6--|
 |---6—6-6----8-8-8---9-9---6--|
 |---7-7-7----8-8-8---9-9---7--|
 |---7-7-7----8-8-8---9-9---8--|
 |---x-x-x----x-x-x---x-x---8--|
 |---x-x-x----x-x-x---x-x---6--|

 ……………………………………………………………………………………………………………..

Dito lng mona… kung may mali paki email na lng sa akin: rock_2cockn@yahoo.com
Sana magustohan nyo… Taga CEBU pala ako…. Wakokokocoke…..

Comments