Soapdish - Pwede Ba Chords & Tabs

 

Pwede Ba Chords & Tabs

Soapdish Chords & Tabs

Version: 1 Type: Tab

Pwede Ba Tab

   
HI mga kusa!., I Lab ds soNg., hehe., accurate po 2.,.
enjoy nyo.,!

pakirate poh nin.u.

Commentaryo dn pho.,,


Intro: 2 guitars

Guitar 1: E-F#m-G#m-A (2x)---> (Strumming to)
eto u'ng chords ng Guitar 1
E	-	022100
F#m	-	244222
G#m	-	466444
A	-	577655

Guitar 2:

e--7----------------------9-----------|
b--9/10-9-----9--7----------10h9------|
g--9-----------9--9-----11------------|
d--9------------------11--------------|
a--7------7h9--------9----------------|
e-------------------------------------|


e--11-----11---11-------------12------|
b--12------12---12--------------------|
g--13--13---13---13--------14---------|
d--13---------------------------------|
a--11------------------12-------------|
e-------------------------------------|

two times (2x)

Verses: Gamitin nyo to

Guitar1 : E-F#m-G#m-A (Strum nyo to)

Guitar 2:

e--0--------------9------------------|
b--0--------------10-----------------|
g--1-let it ring--11-let it ring-----|
d--2--------------11-----------------|
a--2--------------9------------------|
e--0---------------------------------|


e--11-------------12-----------------|
b--12-------------13-----------------|
g--13-let it ring-14-let it ring-----|
d--13-------------14-----------------|
a--11-------------12-----------------|
e------------------------------------|

two times (2x)

Refrain:
  “Huwag kang mag-alala..”)

Guitar1: F#m-G#m (3x)
	   A-Am (“pero ayos lang..”)

Guitar2:
[ Tab from: http://www.guitartabs.cc/tabs/s/soapdish/pwede_ba_tab.html ]
e--9-----9----9----------11----11-----11------|
b---10----10---10----------12----12-----12----|
g-----11----11---11----------13----13-----13--|
d---------------------------------------------|
a---------------------------------------------|
e---------------------------------------------|

three times (3x)
then

e--12---------------12---------------|
b--13-----------------12-------------|
g--14-let it ring-------14-----------|
d--14--------------------------------|
a--12--------------------------------|
e------------------------------------|

para sa mga susunod na verses at refrains, gamitin nyo ang pattern na yan.

At e2 naman u’ng adlib:

Guitar 1 : E-F#m-G#m-A
	(Strum nyo to)

Guitar2

e----------------------------------------|
b----------------------------------------|
g----------------------------------------|
d--------11-9--9h11--11h9----9h11--------|
a--10/11------------------11-------------|
e----------------------------------------|

e----------------------------------------|
b----------------------------------------|
g-11b--9--------------9h11-11/13-11/13---|
d---------11-------11--------------------|
a------------11-13-----------------------|
e----------------------------------------|

e----------------------------------------|
b----------------------------------------|
g-13-11-11h9-------------11b-9-----------|
d------------11h9--9h11--------11--------|
a----------------11----------------------|
e----------------------------------------|

e-----------------------------------7-7--|
b--12/14-12------------9/7------7-9------|
g-----------13-11-9h11-----9-7-9---------|
d----------------------------------------|
a----------------------------------------|
e----------------------------------------|


O ayan na,., MGA DUde! Basta pakinggan nyo ang kanta para makuha nyo
ang correct timing nyan,ayt?. pakirate nyo po!

hi sa mga tga TC, og ni bansot sad, og sa mga hanginon.. haha,

add me up dn sa frndstr, jmac_12001@yahoo.com

-"Pinaka_G”-