Soapdish - Dahil Sa Ulan Chords & Tabs

 

Dahil Sa Ulan Chords & Tabs

Soapdish Chords & Tabs

Version: 1 Type: Tab 0 ratings
1 star 2 stars 3 stars 4 stars 5 stars
comments

Dahil Sa Ulan Tab

 Title: Dahil Sa Ulan (intro) 
 Artist: Soapdish 
 Album: Soapdish (self-titled) 
 Track No. 8 
 Transcribed by: Allan John G. Amisola  
 E-mail add: kogure_18spider@yahoo.com 
 Date/Time: Thursday, 08 September 2005 - 9:50 am

     An'lupet ni2, promiz!!!

 e|--------------------------------------------------------------------|
 B|--------------------------------------------------------------------|
 G|--------------------------------------------------------------------|
 D|----------7--6--7--7--7--7----------7--6--7--7--7--0----------------|
 A|----0--0----------------------0--0----------------------------------|
 E|--------------------------------------------------------------------|
[ Tab from: http://www.guitartabs.cc/tabs/s/soapdish/dahil_sa_ulan_tab.html ]
 e|--------------------------------------------------------------------|
 B|--------------------------------------------------------------------|
 G|--------------------------------------------------------------------|
 D|----------7--6--7--7--7--0----------7--6--7--7--7--0----------------|
 A|----4--4----------------------4--4----------------------------------|
 E|--------------------------------------------------------------------|

 e|--------------------------------------------------------------------|
 B|--------------------------------------------------------------------|
 G|--------------------------------------------------------------------|
 D|--------------------------------------------------------------------|
 A|----------2--1--2--2--2--2----------2--1--2--2--2--2----------------|
 E|----2--2----------------------2--2----------------------------------|

 e|--------------------------------------------------------------------|
 B|--------------------------------------------------------------------|
 G|----2///10~--12~--10--9~--------------------------------------------|
 D|--------------------------------------------------------------------|
 A|--------------------------------------------------------------------|
 E|--------------------------------------------------------------------|
Comments