Soak - Shuttergut Chords & Tabs

 

Shuttergut Chords & Tabs

Soak Chords & Tabs

Version: 1 Type: Bass Tab 0 ratings
1 star 2 stars 3 stars 4 stars 5 stars
comments

Shuttergut Bass Tab

Song: Shuttergut  (Caroline)
Artist: Soak
Album: Flywatt
Tabbed by: Padrino (basstabs@hotmail.com)


It sounds the best if you play the verse part with a pick, 
and with the bass knob on your guitar turned down all the way,
 it makes the more tinny sound. Or if you have a equalizer 
pedal you can turn that on and off for the verse part.

[ Tab from: http://www.guitartabs.cc/tabs/s/soak/shuttergut_btab.html ]
Chorus:
("Caroline, Caroline, Caroline....")
G----------------------------
D----------------------------
A---------4-4-4--------------
E--6-6-6---------2-2-2--5-5-5

Verse:
("Open the door, leave the world....")
G-------------------------------------------
D-------------------------------------------
A--------------------------------3-3-3-2-1-0
E--1-1--1-1-4-4-4-3-2-0-1-1--1-1------------

Bridge:
Right after the Verse
G------------------------
D------------------------
A--1-1--1-1-1------------
E-------------2-2--2-2-2-
Comments