Snuff - Chocs Away Chords & Tabs

 

Chocs Away Chords & Tabs

Snuff Chords & Tabs

Version: 1 Type: Tab 0 ratings
1 star 2 stars 3 stars 4 stars 5 stars
comments

Chocs Away Tab

Band : Snuff
Song : Chocs Away
Album : Disposable Income
Tabbed by Tom Gruitt
Email - tgruitt@yahoo.com

p.m ………….. =  Palm Muting

For Rhythm Guitar
Intro:

E 	1-1-1-1-1-1--5-5-5-5-5-5--6-6-6-6-6--6-6-6-6-6
B 	1-1-1-1-1-1--5-5-5-5-5-5--8-8-8-8-8--6-6-6-6-6
G 	2-2-2-2-2-2--6-6-6-6-6-6--8-8-8-8-8--7-7-7-7-7	x4
D 	3-3-3-3-3-3--7-7-7-7-7-7--8-8-8-8-8--8-8-8-8-8
A 	3-3-3-3-3-3--7-7-7-7-7-7--6-6-6-6-6--8-8-8-8-8
E 	1-1-1-1-1-1--5-5-5-5-5-5--6-6-6-6-6--6-6-6-6-6

Verse:

E 	1-1-1-1-1-1-1-1--5-5-5-5-5-5-5-5--6-6-6-6-6-6-6-6--6-6-6-6-6-6-6--6
B 	1-1-1-1-1-1-1-1--5-5-5-5-5-5-5-5--8-8-8-8-8-8-8-8--6-6-6-6-6-6-6--6
G 	2-2-2-2-2-2-2-2--6-6-6-6-6-6-6-6--8-8-8-8-8-8-8-8--7-7-7-7-7-7-7--7   
D 	3-3-3-3-3-3-3-3--7-7-7-7-7-7-7-7--8-8-8-8-8-8-8-8--8-8-8-8-8-8-8--8
A 	3-3-3-3-3-3-3-3--7-7-7-7-7-7-7-7--6-6-6-6-6-6-6-6--8-8-8-8-8-8-8--8
E 	1-1-1-1-1-1-1-1--5-5-5-5-5-5-5-5--6-6-6-6-6-6-6-6--6-6-6-6-6-6-6--6
    p.m   …………………………………………………………………….
[ Tab from: http://www.guitartabs.cc/tabs/s/snuff/chocs_away_tab.html ]
E 	1-1-1-1-1-1-1-1--5-5-5-5-5-5-5-5--6-6-6-6-6-6-6-6--6-6-6-6-6-6-6-6
B 	1-1-1-1-1-1-1-1--5-5-5-5-5-5-5-5--8-8-8-8-8-8-8-8--6-6-6-6-6-6-6-6
G 	2-2-2-2-2-2-2-2--6-6-6-6-6-6-6-6--8-8-8-8-8-8-8-8--7-7-7-7-7-7-7-7   
D 	3-3-3-3-3-3-3-3--7-7-7-7-7-7-7-7--8-8-8-8-8-8-8-8--8-8-8-8-8-8-8-8
A 	3-3-3-3-3-3-3-3--7-7-7-7-7-7-7-7--6-6-6-6-6-6-6-6--8-8-8-8-8-8-8-8
E 	1-1-1-1-1-1-1-1--5-5-5-5-5-5-5-5--6-6-6-6-6-6-6-6--6-6-6-6-6-6-6-6
    p.m ……………………………………………………..

E 	1-1-1-1-1-1--5-5-5-5-5-5--6-6-6-6-6--6-6-6-6-6
B 	1-1-1-1-1-1--5-5-5-5-5-5--8-8-8-8-8--6-6-6-6-6
G 	2-2-2-2-2-2--6-6-6-6-6-6--8-8-8-8-8--7-7-7-7-7	x2
D 	3-3-3-3-3-3--7-7-7-7-7-7--8-8-8-8-8--8-8-8-8-8
A 	3-3-3-3-3-3--7-7-7-7-7-7--6-6-6-6-6--8-8-8-8-8
E 	1-1-1-1-1-1--5-5-5-5-5-5--6-6-6-6-6--6-6-6-6-6

Chorus:

E 	1-1-1-1-1-1-1-1-1-1--6-6-6-6-6--6-6-6-6
B 	1-1-1-1-1-1-1-1-1-1--8-8-8-8-8--6-6-6-6
G 	3-3-3-3-3-3-3-3-3-3--8-8-8-8-8--7-7-7-7 	x2
D 	3-3-3-3-3-3-3-3-3-3--8-8-8-8-8--8-8-8-8
A 	3-3-3-3-3-3-3-3-3-3--6-6-6-6-6--8-8-8-8
E  	1-1-1-1-1-1-1-1-1-1--6-6-6-6-6--6-6-6-6






Riff:

E 	1------5------6------6				E-1
B 	1------5------8------6				B-1
G 	3------6------8------7 	      x4     Finish on	G-3
D 	3------7------8------8				D-3	
A 	3------7------6------8				A-3
E 	1------5------6------6				E-1


Order:

Intro
Verse 1
Chorus version 1
Verse 2
Chorus version 1
Chorus version 2
Riff
Chorus version 1
Chorus version 2
Riff

Chorus 2 has slightly different lyrics than chorus 1 but is the same chords
Comments