Snow Patrol - Youre All I Have Chords & Tabs

 

Youre All I Have Chords & Tabs

Snow Patrol Chords & Tabs

Version: 1 Type: Tab

Youre All I Have Tab

Song: You're All I Have
Artist: Snow Patrol
Album: Eyes Open (2006)

     Intro Fig 1 / Outro
E|-7~-7~-|--4~-4~-|-7~-7~-|-4~-4~-|-----------------------------------|
B|-------|--------|-------|-------|-----------------------------------|
G|-------|--------|-------|-------|-----------------------------------|
D|-------|--------|-------|-------|-----------------------------------|
A|-------|--------|-------|-------|-----------------------------------|
E|-------|--------|-------|-------|-----------------------------------|

     Intro Fig 2 / Verse Fig 1 / Chorus Fig
E|-0-0-0-0-0-0-0-0-|-0-0-0-0-0-0-0-0|---------------------------------|
B|-0-0-0-0-0-0-0-0-|-2-2-2-2-2-2-2-2|---------------------------------|
G|-1-1-1-1-1-1-1-1-|-2-2-2-2-2-2-2-2|--4 Times------------------------|
D|-2-2-2-2-2-2-2-2-|-2-2-2-2-2-2-2-2|---------------------------------|
A|-2-2-2-2-2-2-2-2-|-0-0-0-0-0-0-0-0|---------------------------------|
E|-0-0-0-0-0-0-0-0-|----------------|---------------------------------|
[ Tab from: http://www.guitartabs.cc/tabs/s/snow_patrol/youre_all_i_have_tab.html ]
     Verse Fig 2 / Post-chorus fig (use a slide)
E|-2-4~|-----|--7-4~-|----|-------------------------------------------|
B|-----|--2~-|-------|-7~-|-------------------------------------------|
G|-----|-----|-------|----|----Last 2 lines---------------------------|
D|-----|-----|-------|----|-------------------------------------------|
A|-----|-----|-------|----|-------------------------------------------|
E|-----|-----|-------|----|-------------------------------------------|

     Pre-Chorus (repeat)
E|-2-2-2-2-2-2-2-2|-2-2-2-2-2-2-2-2-|-2-2-2-2-2-2-2-2|-2-2-2-2-2-2-2-2-|
B|-2-2-2-2-2-2-2-2|-2-2-2-2-2-2-2-2-|-2-2-2-2-2-2-2-2|-2-2-2-2-2-2-2-2-|
G|-4-4-4-4-4-4-4-4|-4-4-4-4-4-4-4-4-|-4-4-4-4-4-4-4-4|-4-4-4-4-4-4-4-4-|
D|-4-4-4-4-4-4-4-4|-4-4-4-4-4-4-4-4-|-4-4-4-4-4-4-4-4|-4-4-4-4-4-4-4-4-|
A|-2-2-2-2-2-2-2-2|-2-2-2-2-2-2-2-2-|-0-0-0-0-0-0-0-0|-0-0-0-0-0-0-0-0-|
E|----------------|-----------------|----------------|-----------------|

     Bridge (after 2nd Chorus) use light distortion
E|----------------|----------------|----------------------------------|
B|----------------|----------------|----------------------------------|
G|----------------|----------------|----------------------------------|
D|-2-2-2-2-2-2-2-2|-2-2-2-2-2-2-2-2|---4 times------------------------|
A|-2-2-2-2-2-2-2-2|-0-0-0-0-0-0-0-0|----------------------------------|
E|-0-0-0-0-0-0-0-0|-0-0-0-0-0-0-0-0|----------------------------------|

and thats everything, enjoy!