Snow Patrol - Spitting Games Chords & Tabs

 

Spitting Games Chords & Tabs

Snow Patrol Chords & Tabs

Version: 3 Type: Tab 0 ratings
1 star 2 stars 3 stars 4 stars 5 stars
comments

Spitting Games Tab

   
INTRO
Guitar1
Oooooooooo...Ooooooooo...
e-------7p5~-------7p5-3~--|
B--5/7~-------5/7~---------|
G--------------------------|
D--------------------------|
A--------------------------|
D--------------------------|

or, if you choose not to play along with the tone of the "Ooooo's"

e---------------------------------|
B-7-----10----7-----10\8----------|
G-x-(X8)x-(X8)x-(X8)x--x--7-------|
D-4-----7-----4-----7-\5--x-(X6)--|
A-------------------------5-------|
D---------------------------------|

[ Tab from: http://www.guitartabs.cc/tabs/s/snow_patrol/spitting_games_tab_ver_3.html ]
Guitar 2
D-A-Bm-G  (i think variations of these chords are used)

VERSE
Guitar1
Same as intro Octave Chords


Guitar 2
D-C-Bm-G (again, i think its variations of these chords)


CHORUS
Guitar 1&2

F-G-D


BRIDGE/OUTRO
F-G-D(Low D string only)

Seems to me to be quite a bit of synthesized music in this song, but this is pretty much 
I play it live, with slight variations in some of the Intro "repetitions"....any 
corrections of any kind, bracertj@hotmail.com
Comments