Snow Patrol - Spitting Games Acoustic Chords & Tabs

 

Spitting Games Acoustic Chords & Tabs

Snow Patrol Chords & Tabs

Version: 1 Type: Tab 0 ratings
1 star 2 stars 3 stars 4 stars 5 stars
comments

Spitting Games Acoustic Tab

   
SNOW PATROL - SPITTIING GAMES (acoustic)
Version that appears on www.yahoo.launch.com
Tabbed by Keir Alexander, keiralx@yahoo.co.uk


Intro:   D	Em	F#	G
---------x---------0---------2--------3---|
---------5---------2---------4--------5---|
---------7---------2---------4--------5---|
---------7---------x---------3--------4---|    x2
---------x---------x---------x--------x---|
---------x---------x---------x--------x---|
(all strings marked x should be muted)
rhythm guitar plays these chords, guitar 2 plays the catchy riff:

G|:------9/11---------9/11------------|
D|:-------------9\7----------9\7/12---|

You can double these notes up for a richer sound...
[ Tab from: http://www.guitartabs.cc/tabs/s/snow_patrol/spitting_games_acoustic_tab.html ]
E|:-----12/14-------------12/14------------10----|
B|:--------------12\10-------------12\10---------|
G|:------9/11-------------9/11--------------7----|
D|:---------------9\7---------------9\7----------|


verse:   D	C	B	G
---------x---------x---------x--------3---|
---------5---------3---------2--------5---|
---------7---------5---------4--------5---|
---------7---------5---------4--------4---|
---------x---------x---------x--------x---|
---------x---------x---------x--------x---|

chorus:  F	G	D
---------1---------3---------x--------|
---------3---------5---------5--------|
---------3---------5---------7--------|
---------2---------4---------7--------|
---------1---------3---------x--------|
---------1---------3---------x--------|
Comments