Snow Patrol - Run Chords & Tabs

 

Run Chords & Tabs

Snow Patrol Chords & Tabs

Version: 8 Type: Tab 0 ratings
1 star 2 stars 3 stars 4 stars 5 stars
comments

Run Tab

Snow patrol Run
From the album final straw
Track 7
Tabbed by Liam 
Email: guitar_rocker_47@hotmail.com
Tuning Standard

I really noticed I loved this song after seeing the guy out of snow patrol play a live
acoustic version of this sing on the NME awards however this is a tab for the album
version, no one else has tabbed this right but here it is - my version

Intro (rhythm guitar)
E|---------------------------------------|
B|---------------------------------------|
G|-5-5-5-5-5--5-5-5--5-5-5-5-5--5-5-5-5--|
D|-2-2-2-2-2--3-3-3--0-0-0-0-0--0-0-0-0--| x4
A|-0-0-0-0-0--0-0-0--5-5-5-5-5--5-5-5-5--|
E|-------------------3-3-3-3-3--3-3-3-3--|

(Lead guitar)
E|---------------------------------------|
B|-9-9-9-9-\-7-7-7-7bu-------------------|
G|----------------------8-8-8-8-\-6-6-6~-| x2 (come in on the 2nd repeat of
D|---------------------------------------|     the above riff)
A|---------------------------------------|
E|---------------------------------------|

--------------------------------------------------------------------------------

Verse (rhythm guitar)
E|---------------------------------------|
B|---------------------------------------|
G|-5-5-5-5-5--5-5-5--5-5-5-5-5--5-5-5-5--|
D|-2-2-2-2-2--3-3-3--0-0-0-0-0--0-0-0-0--| x4
A|-0-0-0-0-0--0-0-0--5-5-5-5-5--5-5-5-5--|
E|-------------------3-3-3-3-3--3-3-3-3--|

(Lead guitar)
E|---------------------------------------|
B|-9-9-9-9-\-7-7-7-7bu-------------------|
G|----------------------8-8-8-8-\-6-6-6~-| x1 (come in on the 4th repeat of
D|---------------------------------------|     the above riff)
A|---------------------------------------|
E|---------------------------------------|

Chorus (Rhythm)
E|--------------------------------------------------------------------|
B|-1-1-1-1-1-1-1-1--1-1-1-1-1-1-1-1-----------------------------------|
G|-0-0-0-0-0-0-0-0--0-0-0-0-0-0-0-0--5-5-5-5-5-5-5-5--5-5-5-5-5-5-5-5-|
D|-2-2-2-2-2-2-2-2--2-2-2-2-2-2-2-2--0-0-0-0-0-0-0-0--0-0-0-0-0-0-0-0-|
A|-3-3-3-3-3-3-3-3--3-3-3-3-3-3-3-3--5-5-5-5-5-5-5-5--5-5-5-5-5-5-5-5-|
E|-----------------------------------3-3-3-3-3-3-3-3--3-3-3-3-3-3-3-3-|

Lead
E|--------------------------------------------------------------------|
B|-----1-------1--------1-------1--------3-------3--------3--------3--|
G|---0---0---0---0----0---0---0---0----0---0---0---0----0---0----0---0|
D|-2-------2--------2-------2-----------------------------------------|
A|-----------------------------------2-------2--------2--------2------|
E|--------------------------------------------------------------------|
[ Tab from: http://www.guitartabs.cc/tabs/s/snow_patrol/run_tab_ver_8.html ]
(Rhythm)
E|--------------------------------------------------------------------|
B|--------------------------------------------------------------------|
G|-5-5-5-5-5-5-5-5--5-5-5-5-5-5-5-5--5-5-5-5-5-5-5-5--5-5-5-5-5-5-5-5-|
D|-2-2-2-2-2-2-2-2--2-2-2-2-2-2-2-2--3-3-3-3-3-3-3-3--3-3-3-3-3-3-3-3-|
A|-0-0-0-0-0-0-0-0--0-0-0-0-0-0-0-0--0-0-0-0-0-0-0-0--0-0-0-0-0-0-0-0-|
E|--------------------------------------------------------------------|

Lead
E|--------------------------------------------------------------------|
B|-----1-------1--------1-------1--------1-------1--------1-------1---|
G|---2---2---2---2----2---2---2---2----2---2---2---2----2---2---2---2-|
D|-2-------2--------2-------2--------3-------3--------3-------3-------|
A|--------------------------------------------------------------------|
E|--------------------------------------------------------------------|

Post Chorus (rhythm guitar)
E|---------------------------------------|
B|---------------------------------------|
G|-5-5-5-5-5--5-5-5--5-5-5-5-5--5-5-5-5--|
D|-2-2-2-2-2--3-3-3--0-0-0-0-0--0-0-0-0--| x2
A|-0-0-0-0-0--0-0-0--5-5-5-5-5--5-5-5-5--|
E|-------------------3-3-3-3-3--3-3-3-3--|

(Lead guitar)
E|---------------------------------------|
B|-9-9-9-9-\-7-7-7-7bu-------------------|
G|----------------------8-8-8-8-\-6-6-6~-| x2 
D|---------------------------------------|   
A|---------------------------------------|
E|---------------------------------------|

Solo (rhythm plays chorus x3 in the background)
E|----------------------------------------|----------------------------------------|
B|-6p5--5p3--3h5--5h6--6p5--5p3--3p1--1/6-|-6p5--5p3--3h5--5h6--6p5--5p3--3p1--1/6-|
G|----------------------------------------|----------------------------------------|
D|----------------------------------------|----------------------------------------|
A|----------------------------------------|----------------------------------------|
E|----------------------------------------|----------------------------------------|

E|----------------------------------------|----------------------------------------|
B|-6p5--5p3--3p1--1p0---------------------|-0h1--1h3--3p1--1h3--3h5--5p3--3h5--1~~-|
G|---------------------4p2--2p0--0h2--2h4-|----------------------------------------|
D|----------------------------------------|----------------------------------------|
A|----------------------------------------|----------------------------------------|
E|----------------------------------------|----------------------------------------|

Outro (for the outro just play the rhythm part of the chorus (NO LEAD!) slightly palm
muted then on the last chord play it open and let it RING!!!! (Quietly)



Order

Intro
Verse x2
Chorus x2
Post Chorus
Verse x1
Chorus x4
Solo x2
Outro

Note: if you insert this tab into Microsoft word and it looks weird where the tab
overlaps it's self just go on file, page set-up then click on the margins tab and
adjust to this: top = 0.32cm, bottom = 0.51cm,Left and right = 3cm. The tab should
now look in proportion, if it doesn't or you don't understand leave a comment
Comments