Snow Patrol - Run Chords & Tabs

 

Run Chords & Tabs

Snow Patrol Chords & Tabs

Version: 6 Type: Tab 0 ratings
1 star 2 stars 3 stars 4 stars 5 stars
comments

Run Tab

   
This is how they play it

Intro:
Gtr 1
e---------------------------------)---------------------------------)
b---------------------------------)---------------------------------)
g-5---5---5-------5---5---5---5---)-5---5---5---5---5---5---5---5---)
d-2---2---2-------2---3---3---0---)-0---0---0---0---0---0---0---0---)
a-0---0---0---0---0---0---0---0---)-5---5---5---5---5---5---5---5---)
E---------------------------------)-3---3---3---3---3---3---3---3p0-)

 ---------------------------------)---------------------------------)
 ---------------------------------)---------------------------------)
 -5-------5-------5---5---5---5---)-5---5---5---5---5---5---5---5---)
 -2-------2-------2---3---3---0---)-0---0---0---0---0---0---0---0---)
 -0---0---0---0---0---0---0---0---)-5---5---5---5---5---5---5---5---)
 ---------------------------------)-3---3---3---3---3---3---3---0---)

Gtr 2
 ---------------------------------)---------------------------------)
 ---------------------------------)---------------------------------)
 -----9---9---9---9---7---7---7---)-7-s-4---4---4---4-s-2-----2-----) x2
 ---------------------------------)---------------------------------)
 ---------------------------------)---------------------------------)
 ---------------------------------)---------------------------------)

Verse:

 ---------------------------------)---------------------------------)
 ---------------------------------)---------------------------------)
 -5---5---5-------5---5---5---5---)-5---5---5---5---5---5---5---5---)
 -2---2---2-------2---3---3---0---)-0---0---0---0---0---0---0---0---)
 -0---0---0---0---0---0---0---0---)-5---5---5---5---5---5---5---5---)
 ---------------------------------)-3---3---3---3---3---3---3---0---)

Chorus:

Gtr 1 strums, C G Am F

Gtr 2
 C               x2 G             x2 Am                x2 F               x2
 -----------------) ---------------) -------------------) -------8--------8-)
 ------8-------8--) -----8------8--) ------10-------10--) ----10-------10---)
 ----9-------9----) ---7------7----) ----9--------9-----) -10-------10------)
 -10------10------) -9------9------) -10-------10-------) ------------------)
 -----------------) ---------------) -------------------) ------------------)
 -----------------) ---------------) -------------------) ------------------)
[ Tab from: http://www.guitartabs.cc/tabs/s/snow_patrol/run_tab_ver_6.html ]
Solo:
 C                                               G
 -----------------------)-----------------------)-----------------------)
 -----------------------)-----------------------)-----------------------)
 -10s9--9s7--7s9--9s10--)-10s9--9s7--7s5--5s10--)-10s9--9s7--7s9--9s10--)
 -----------------------)-----------------------)-----------------------)
 -----------------------)-----------------------)-----------------------)
 -----------------------)-----------------------)-----------------------)

                         Am
 -----------------------)-----------------------)-----------------------)
 -----------------------)-----------------------)-----------------------)
 -10s9--9s7--7s5--5s10--)-10s9--9s7--7s5--5s4---)-4s2---2p0--0h2--2s4---)
 -----------------------)-----------------------)-----------------------)
 -----------------------)-----------------------)-----------------------)
 -----------------------)-----------------------)-----------------------)


 -----------------------)-----------------------))
 -----------------------)-----------------------))
 --4s5--5s7--7s5--5s7---)--7s9--9s7--7s5---5----))
 -----------------------)-----------------------))
 -----------------------)-----------------------))
 -----------------------)-----------------------))

Lyrics:

I'll sing it one last time for you
Then we really have to go
You've been the only thing that's right
In all i've done.

And I can barely look at you
But every single time I do
I know we'll make it anywhere
Anywhere from here

Light up, Light up
As if you have a choice 
Even if you cannot hear my voice
I'll be right beside you dear

Louder, louder
And we'll run for our lives
I can hardly speak I understand
Why you can't raise your voice to say

To think I might not see those eyes
It makes it so hard not to cry
And as we say our long goodbyes
I nearly do.

Light up, light up
As if you have a choice
Even if you cannot hear my voice
I'll be right beside you dear

Louder, louder
And we'll run for our lives
I can hardly speak I understand
Why you can't raise your voice to say

Slower, slower
We don't have time for that
All I want is to find an easier way
To get out of our little heads

Have heart my dear
We're bound to be afraid
Even if it's just for a few days
Making up for all this mess.

Light up, light up
As if you have a choice
Even if you cannot hear my voice
I'll be right beside you dear.
Comments