Snow Patrol - Run Chords & Tabs

 

Run Chords & Tabs

Snow Patrol Chords & Tabs

Version: 1 Type: Tab 1 rating
1 star 2 stars 3 stars 4 stars 5 stars
comments

Run Tab

   
Run 
Snow Patrol

Verse Chords

Am, Fmaj7, G

Chorus Chords

C, G, Am, Fmaj7



Verse Riff
e---------------------------------
b---------------------------------
G-9-9-9-9-9-7-7-7-7/4-4-4-4/2-2-2-
D---------------------------------
A---------------------------------
E---------------------------------
[ Tab from: http://www.guitartabs.cc/tabs/s/snow_patrol/run_tab.html ]
Chorus Thing
e--------------|--------------|
b--------------|--------------|
g-10--9--7--9--|-10--9--7--5--|
D--------------|--------------| Repeat Twice
A--8--7--5--7--|--8--7--5--3--|
E--------------|--------------|

e--------------|--------------|------------|-----------------|
b--------------|--------------|------------|-----------------|
g-10--9--7--5--|--------------|------------|-----------------|
D--------------|--9--7--5--7--|-9-10-12-10-|--12--14--12--10-|
A--8--7--5--7--|--------------|------------|-----------------|
E--------------|--7--5--3--5--|-7-8--10-8--|--10--12--10--8--|
 
Comments