Snow Patrol - Open Your Eyes Chords & Tabs

 

Open Your Eyes Chords & Tabs

Snow Patrol Chords & Tabs

Version: 1 Type: Tab

Open Your Eyes Tab

Artist: Snow Patrol
Song: Open Your Eyes
Album: Eyes Open
Tuning: Standard
Tabber: Calum (afirock74@hotmail.com)

Intro/Verse/Chorus:
e|-----------------------------------------------------------------------------|
B|-----------------------------------------------------------------------------|
G|-7-7-7-7-7-7-7-7-7--7-7-7-7-7-7-7-7-7--7-7-7-7-7-7-7-7-7--7-7-7-7-7-7-7-7-7--|
D|-5-5-5-5-5-5-5-5-5--5-5-5-5-5-5-5-5-5--5-5-5-5-5-5-5-5-5--5-5-5-5-5-5-5-5-5--|
A|--------------------3-3-3-3-3-3-3-3-3--x-x-x-x-x-x-x-x-x---------------------|
E|---------------------------------------0-0-0-0-0-0-0-0-0---------------------|

Starts at 1st chorus:
e|---7---7---7---7--|
B|--8---8---8---8---|
G|-7---7---7---7----|
D|------------------|
A|------------------|
E|------------------|
[ Tab from: http://www.guitartabs.cc/tabs/s/snow_patrol/open_your_eyes_tab.html ]
Bridge:
e|---------------------------------------------|
B|-15-15-15--13-13-13--12-12-12-9-9-9-9-9-9-9--|
G|-x--x--x---x--x--x---x--x--x--x-x-x-x-x-x-x--|
D|-12-12-12--10-10-10--9--9--9--7-7-7-7-7-7-7--|
A|---------------------------------------------|
E|---------------------------------------------|

Outro:
e|-----------------------------------------------------------------------------|
B|-----------------------------------------------------------------------------|
G|-7-7-7-7-7-7-7-7-7--7-7-7-7-7-7-7-7-7--7-7-7-7-7-7-7-7-7--7-7-7-7-7-7-7-7-7--|
D|-5-5-5-5-5-5-5-5-5--5-5-5-5-5-5-5-5-5--5-5-5-5-5-5-5-5-5--5-5-5-5-5-5-5-5-5--|
A|--------------------3-3-3-3-3-3-3-3-3--x-x-x-x-x-x-x-x-x---------------------|
E|---------------------------------------0-0-0-0-0-0-0-0-0---------------------|