Snow Patrol - Mahogany Chords & Tabs

 

Mahogany Chords & Tabs

Snow Patrol Chords & Tabs

Version: 1 Type: Tab 0 ratings
1 star 2 stars 3 stars 4 stars 5 stars
comments

Mahogany Tab

##################################################################################
# This file is the author's own work and represents their interpretation of the  #
# song. You may only use this file for private study, scholarship, or research.  #
##################################################################################

----------------------
Snow Patrol - Mahogany
----------------------
David Thompson, bring_it_on53@hotmail.com

1|-------------------------------------------------|
2|-3-----------------------------------------------|
3|-2-----------------------------------------------|
4|-0-----------------------------------------------|
5|-------------------------------------------------|
6|-----------------3---------------2---------------|
   1   +   2   +   3   +   4   +   5   +   6   + 

          
1|---------------------------------|---------------------------------|
2|---------------------------------|---------------------------------|
3|---------------------------------|-2-------------------------------|
4|---------------------------------|-2-------------------------------|
5|-2-------------------------------|-0-------------------------------|
6|-0-------------------------------|---------------------------------|
   1   +   2   +   3   +   4   +     1   +   2   +   3   +   4   +
  
  
1|---------------------------------|---------------------------------|
2|-3-------3-----3---1---1---1---1-|-3-------3-----3---1---1---1---1-|
3|-2-------2-----------0---0---0---|-2-------2-----------0---0---0---|
4|-0-------0---0-------2---2---2---|-0-------0---0-------2---2---2---|
5|---------------------3---3---3---|---------------------3---3---3---|
6|---------------------3---3---3---|---------------------3---3---3---|
   1   +   2   +   3   +   4   +     1   +   2   +   3   +   4   +

   

1|-------------------------------------------------|
2|-3-----------------------------------------------|
3|-2-----------------------------------------------|
4|-0-----------------------------------------------|
5|-------------------------------------------------|
6|-----------------3-----------3-3-2-----------2-2-|
   1   +   2   +   3   +   4   +   5   +   6   + 

       
1|---------------------------------|---------------------------------|
2|---------------------------------|---------------------------------|
3|---------------------------------|-2-------------------------------|
4|---------2-----------------------|-2-------------------------------|
5|-2-------2-----------------------|-0-------------------------------|
6|-0-------0-----------------------|---------------------------------|
   1   +   2   +   3   +   4   +     1   +   2   +   3   +   4   +

   
[ 1|-2-------2---0-------------------|-2-------2---0-------------------| ]
[ 2|-3-------3-----3---1---1---1---1-|-3-------3-----3---1---1---1---1-| ]
[ 3|-2-------2-----------0---0---0---|-2-------2-----------0---0---0---| ]
[ 4|-0---0---0-----------2---2---2---|-0---0---0-----------2---2---2---| ] x2
[ 5|---------------------3---3---3---|---------------------3---3---3---| ]
[ 6|---------------------3---3---3---|---------------------3---3---3---| ]
   1   +   2   +   3   +   4   +     1   +   2   +   3   +   4   +

  

1|-0-----0-2-----2-5-------5---5-5-|
2|-1-----1-3-----3-6---------6-6-6-|
3|-0-------2-------5-----------5-5-|
4|-2-------0-----------------------|
5|---------------------------------|
6|---------------------------------|
   1   +   2   +   3   +   4   + 

[ 1|-2-------2---0-------------------|-2-------2---0-------------------| ]
[ 2|-3-------3-----3---1---1---1---1-|-3-------3-----3---1---1---1---1-| ]
[ 3|-2-------2-----------0---0---0---|-2-------2-----------0---0---0---| ]
[ 4|-0---0---0-----------2---2---2---|-0---0---0-----------2---2---2---| ] x2
[ 5|---------------------3---3---3---|---------------------3---3---3---| ]
[ 6|---------------------3---3---3---|---------------------3---3---3---| ]
   1   +   2   +   3   +   4   +     1   +   2   +   3   +   4   +    
[ Tab from: http://www.guitartabs.cc/tabs/s/snow_patrol/mahogany_tab.html ]
1|-------------------------------------------------|
2|-3-----------------------------------------------|
3|-2-----------------------------------------------|
4|-0-----------------------------------------------|
5|-------------------------------------------------|
6|-----------------3---------------2---------------|
   1   +   2   +   3   +   4   +   5   +   6   + 

       
1|---------------------------------|---------------------------------|
2|---------------------------------|---------------------------------|
3|---------------------------------|---------------------------------|
4|---------2-----------------------|-2-------------------------------|
5|-2-------2-----------------------|-0-------------------------------|
6|-0-------0-----------------------|---------------------------------|
   1   +   2   +   3   +   4   +     1   +   2   +   3   +   4   +
 
   


1|-2-------2---0-------------------|-2-------2---0-------------------|
2|-3-------3-----3---1---1---1---1-|-3-------3-----3---1---1---1---1-|
3|-2-------2-----------0---0---0---|-2-------2-----------0---0---0---|
4|-0---0---0-----------2---2---2---|-0---0---0-----------2---2---2---|
5|---------------------3---3---3---|---------------------3---3---3---|
6|---------------------3---3---3---|---------------------3---3---3---|
   1   +   2   +   3   +   4   +     1   +   2   +   3   +   4   +    

   Go

1|-------------------------------------------------|
2|-3-----------------------------------------------|
3|-2-----------------------------------------------|
4|-0-----------------------------------------------|
5|-------------------------------------------------|
6|-----------------3---------------2---------------|
   1   +   2   +   3   +   4   +   5   +   6   + 

     

1|---------------------------------|---------------------------------|
2|---------------------------------|---------------------------------|
3|---------------------------------|---------------------------------|
4|---------------------------------|-2-------------------------------|
5|-2-------------------------------|-0-------------------------------|
6|-0-------------------------------|---------------------------------|
   1   +   2   +   3   +   4   +     1   +   2   +   3   +   4   +

   

[ 1|-2-------2---0-------------------|-2-------2---0-------------------| ]
[ 2|-3-------3-----3---1---1---1---1-|-3-------3-----3---1---1---1---1-| ]
[ 3|-2-------2-----------0---0---0---|-2-------2-----------0---0---0---| ]
[ 4|-0---0---0-----------2---2---2---|-0---0---0-----------2---2---2---| ] x2
[ 5|---------------------3---3---3---|---------------------3---3---3---| ]
[ 6|---------------------3---3---3---|---------------------3---3---3---| ]
   1   +   2   +   3   +   4   +     1   +   2   +   3   +   4   +

   

1|-0-----0-2-----2-5-------5---5-5-|
2|-1-----1-3-----3-6---------6-6-6-|
3|-0-------2-------5-----------5-5-|
4|-2-------0-----------------------|
5|---------------------------------|
6|---------------------------------|
   1   +   2   +   3   +   4   + 

1|-2-------2---0-------------------|-2-------2---0-------------------|
2|-3-------3-----3---1---1---1---1-|-3-------3-----3---1---1---1---1-|
3|-2-------2-----------0---0---0---|-2-------2-----------0---0---0---|
4|-0---0---0-----------2---2---2---|-0---0---0-----------2---2---2---|
5|---------------------3---3---3---|---------------------3---3---3---|
6|---------------------3---3---3---|---------------------3---3---3---|
   1   +   2   +   3   +   4   +     1   +   2   +   3   +   4   +

1|-0-----0-2-----2-5-------5---5-5-|
2|-1-----1-3-----3-6---------6-6-6-|
3|-0-------2-------5-----------5-5-|
4|-2-------0-----------------------|
5|---------------------------------|
6|---------------------------------|
   1   +   2   +   3   +   4   + 

[ 1|-2-------2---0-------------------|-2-------2---0-------------------| ]
[ 2|-3-------3-----3---1---1---1---1-|-3-------3-----3---1---1---1---1-| ]
[ 3|-2-------2-----------0---0---0---|-2-------2-----------0---0---0---| ]
[ 4|-0---0---0-----------2---2---2---|-0---0---0-----------2---2---2---| ] x2
[ 5|---------------------3---3---3---|---------------------3---3---3---| ]
[ 6|---------------------3---3---3---|---------------------3---3---3---| ]
   1   +   2   +   3   +   4   +     1   +   2   +   3   +   4   +

1|---------------------------------|
2|-3-------------------------------|
3|-2-------------------------------|
4|-0-------------------------------|
5|---------------------------------|
6|---------------------------------|
   1   +   2   +   3   +   4   + 
Comments