Snow Patrol - How To Be Dead Chords & Tabs

 

How To Be Dead Chords & Tabs

Snow Patrol Chords & Tabs

Version: 1 Type: Tab 0 ratings
1 star 2 stars 3 stars 4 stars 5 stars
comments

How To Be Dead Tab

1. How To Be Dead

intro (some sorta reverse playback)
F--0-|-
C--0-|-
g--2-|-
D--3-|-
A--3-|-
E--1-|-

verse chords
F--0-|-0-|-0-|---|-
C--0-|-0-|-0-|---|-
g--2-|-2-|-3-|-0-|-
D--3-|-3-|-3-|-0-|-
A--3-|-0-|-1-|-5-|-
E--1-|---|---|-3-|-

bridge
F--0-|-0-|-0-------
C--0-|-0-|-0-------
g--2-|-3-|-2-------
D--3-|-3-|-3-------
A--3-|-1-|-3-------
E--1-|---|-1-------

or you could squeeze two guitars in one with the below tab
F------------------|-----------|-------------|------------|-
C------------------|-----------|-------------|------------|-
g--0-2-2-0-0-2-2-0-|-0-2-2-----|-0-2-2-------|-0-2-2------|-
D--3-3-3-3-3-3-3-3-|-3-3-3-----|-3-3-3-------|-3-3-3------|-
A--3-3-3-3-3-3-3-3-|-0-0-0-etc-|-1-1-1--etc--|-x-x-x--etc-|-
E--1-1-1-1-1-1-1-1-|-1-1-1-----|-------------|-3-3-3------|-

[ Tab from: http://www.guitartabs.cc/tabs/s/snow_patrol/how_to_be_dead_tab.html ]
Guitar 2 Intro
F-----------------|-----------------|-------------
C-----0-----0-----|-----------------|(0)----------
g---0-----0-----0-|-----2-----2-----|-0-2-2-0-0---
D-3-----3-----3---|---3-----3-----3-|(3)----------
A-----------------|-5-----5-----5---|-------------
E-----------------|-----------------|-------------
...sounds more full if you include the notes in brackets

Guitar 2 Verse
F-------7------7------|-------7------|-----4-----4-----|-----2---
C-----7------7------7-|-----7---etc--|---5-----5-----5-|---2--etc
g--10-----10-----10---|--10----------|-7-----7-----7---|-5-------
D---------------------|--------------|-----------------|---------
A---------------------|--------------|-----------------|---------
E---------------------|--------------|-----------------|---------
....the 1st and 3rd bars here can be played over the bridge chords
Comments