Snow Patrol - How To Be Dead Chords & Tabs

 

How To Be Dead Chords & Tabs

Snow Patrol Chords & Tabs

Version: 1 Type: Bass Tab 0 ratings
1 star 2 stars 3 stars 4 stars 5 stars
comments

How To Be Dead Bass Tab

   
Intro

G|--------2-------3---------------|----------------2-2-2-2-2-2-2-2-3-3-3-3-3-3-3-3-----------------|
D|3-----------------------5-------|3-3-3-3-3-3-3-3---------------------------------5-5-5-5-5-5-3-3-|
A|--------------------------------|----------------------------------------------------------------|
E|--------------------------------|----------------------------------------------------------------|

Then the only 2 riffs used in the song are:

[ Tab from: http://www.guitartabs.cc/tabs/s/snow_patrol/how_to_be_dead_btab.html ]
G|----------------2-2-2-2-2-2-2-2-3-3-3-3-3-3-3-3-----------------|
D|3-3-3-3-3-3-3-3---------------------------------5-5-5-5-5-5-5-5-|
A|----------------------------------------------------------------|
E|----------------------------------------------------------------|

and

G|----------------------------------------------------------------|
D|----------------------------------------------------------------|
A|----------------------------------------------------------------|
E|1-1-1-1-1-1-1-1-5-5-5-5-5-5-5-5-6-6-6-6-6-6-6-6-3-3-3-3-3-3-3-3-|

and the last bit the bass plays goes:

G|----------------------------------------------------------------|
D|----------------------------------------------------------------|
A|----------------1-1-1-1-3-3-3-3---------------------------------|
E|1-1-1-1-1-1-1-1-----------------1-1-1-1-1-1-1-1-1-1-1-1-1-1-1-1-|
Comments