Snow Patrol - Hands Open Chords & Tabs

 

Snow Patrol Chords & Tabs

Version: 2 Type: Tab 0 ratings
1 star 2 stars 3 stars 4 stars 5 stars
comments

Hands Open Tab

   
Okay this song is so easy. I don't even like this song but I thought I'd tab it because
easy and I think the other guy's tab is wrong. I don't know the lyrics too well so
have to listen to the song and follow along with my tab. Here it is.


Intro/Verse(repeat this riff 1 time each line in the verse):

e|-----------------|
B|-----------------|
G|-----------------|
D|-55-77-55-44-----|
A|-77-55-33-22-----|
E|-----------------|
 "My toungue still mis-behaves..."

Chorus(repeat this riff 4 times - 1 time for every line in the chorus):

e|---------------------|
B|---------------------|
G|---------------------|
D|-5555-7777-5555-3333-|                                                     A|-5555-7777-5555-3333-|
E|-3333-5555-3333-1111-|
 "With my hands open..."

Verse (repeat this riff 1 time each line in the verse):

e|-----------------|
B|-----------------|
G|-----------------|
D|-55-77-55-44-----|
A|-77-55-33-22-----|
E|-----------------|
 "Why would I sabotage..."

Chorus(repeat this riff 4 times - 1 time for every line in the chorus):

e|---------------------|
B|---------------------|
G|---------------------|
D|-5555-7777-5555-3333-|                                                     A|-5555-7777-5555-3333-|
E|-3333-5555-3333-1111-|
"With my hands open..."

Chorus part 2: (Not to sure about this part...)
                (repeat once each line also.)
[ Tab from: http://www.guitartabs.cc/tabs/s/snow_patrol/hands_open_tab_ver_2.html ]
e|---------------------|
B|---------------------|
G|---------------------|
D|-555-777-555-333-----|
A|-333-555-333-111-----|
E|---------------------|
 "It's not as easy as willing it all to be right."

Verse 3 (bridge?...you'll know what I'm talking about when you play it):

 -I think this part is on bass guitar but I figured out regular guitar for it...this
is done clean I believe, and you play this riff once every line... like all the others-

e|-------------------------|
B|-------------------------|
G|-------------------------|
D|-------------------------|
A|-------------------------|
E|-3333-5555-7777-7777-----|
 "Put Sufjan Stevens on, and we'll play your favourite song..."

Chorus(repeat this riff 4 times - 1 time for every line in the chorus):

e|---------------------|
B|---------------------|
G|---------------------|
D|-5555-7777-5555-3333-|                                                     A|-5555-7777-5555-3333-|
E|-3333-5555-3333-1111-|
"My hands open..."

Chorus part 2: (repeat once each line also.)

e|---------------------|
B|---------------------|
G|---------------------|
D|-555-777-555-333-----|
A|-333-555-333-111-----|
E|---------------------|
 "It's not as easy as willing it all to be right."


Just repeat chorus part 2 three more times and that's the whole song.

There you go. Easy song. I'm just really bored. I think I'm going to tab another song.
anyone knows any more Snow Patrol songs, send them to me on MSN and I'll try and tab
My hotmail is adamn1ooo@hotmail.com  . The "o"s are the letter "o" not the number. 
I hope this tab helped out a lot! Rate me and comment please!
Comments