Snow Patrol - Crazy In Love Chords & Tabs

 

Crazy In Love Chords & Tabs

Snow Patrol Chords & Tabs

Version: 1 Type: Tab 0 ratings
1 star 2 stars 3 stars 4 stars 5 stars
comments

Crazy In Love Tab

   
Song: Crazy In Love
Artist: Snow Patrol
Tabbed By: Trent Steel

This is a cover of Beyonce's "Crazy In Love" which is on the Spitting Games single
Guitar 1 = Gary Lightbody
Guitar 2 = Nathan Connolly
Bass	 = Mark McClelland
Drums	 = Jonny Quinn
Rapper   = Zane Lowe

r = ring
~ = vibrate
b = bend
/ = slide
pm= palm mute

Intro:

 Guitar 1&2
e|------------------------------------------------------------|
B|------------------------------------------------------------|
G|-7r--7-9-10-12-10~~------x7---------------------------------|  
D|-0r---------------------------------------------------------|
A|------------------------------------------------------------|
E|------------------------------------------------------------|

 Bass		
G|------------------------------------------------------------|
D|------------------------------------------------------------|
A|------------------------------------------------------------|
E|-66666666666666666/1010101010101010101010--repeat-----------|
 



Verse1:   no guitar, bass played over drums

 Bass		"AH OO, Ah OO, Ah OO"
G|--------------------------------------------|
D|------------------------repeat--------------|
A|--------------------------------------------|
E|--6r----------------------------------------|
   Let it ring for a few seconds then mute




Chorus:
[ Tab from: http://www.guitartabs.cc/tabs/s/snow_patrol/crazy_in_love_tab.html ]
 Guitar 1&2
e|------------------------------------------------------------|
B|------------------------------------------------------------|
G|-7r--7-9-10-12-10~~------x7---------------------------------|  
D|-0----------------------------------------------------------|
A|------------------------------------------------------------|
E|------------------------------------------------------------|


 Bass		
G|------------------------------------------------------------|
D|------------------------------------------------------------|
A|------------------------------------------------------------|
E|-66666666666666666/1010101010101010101010--repeat-----------|
 




Verse2:

 Guitar 1	"Got me lookin so crazy, my baby"		
e|------------------------------------------------------------|
B|------------------------------------------------------------|
G|-------------------------------PM---------------------------|  
D|-6-6-6-6-6-6-/-5-5-5-5-5-5----------------------------------|
A|-6-6-6-6-6-6-/-5-5-5-5-5-5----------------------------------|
E|-4-4-4-4-4-4-/-3-3-3-3-3-3----------------------------------|


 Guitar 1	"Your Love got me lookin so crazy right now"
e|------------------------------------------------------------|
B|------------------------------------------------------------|
G|-7r--7-9-10-12-10~~------x7---------------------------------|  
D|-0r---------------------------------------------------------|
A|------------------------------------------------------------|
E|------------------------------------------------------------|
Comments