Snow Patrol - Chocolate Chords & Tabs

 

Chocolate Chords & Tabs

Snow Patrol Chords & Tabs

Version: 2 Type: Tab 0 ratings
1 star 2 stars 3 stars 4 stars 5 stars
comments

Chocolate Tab

   
-----------------------------------------------------------------------------
			     CHOCOLATE- Snow Patrol
-----------------------------------------------------------------------------
Tabbed by:garlic bread?
Email:bords_knickords@hotmail.com

Tuning:DADGBe
  Intro/ Main Riff (guitar 1)
e|--------------------------------------------------------------------------|
B|--------------------------------------------------------------------------|
G|--------------------------------------------------------------------------|
D|--7-7-7-7-7-7-7-7---7-7-7-7-7-7-7-7---7-7-7-7-7-7-7-7---7-7-7-7-7-7-7-7---|
A|--5-5-5-5-5-5-5-5---5-5-5-5-5-5-5-5---5-5-5-5-5-5-5-5---5-5-5-5-5-5-5-5---|
D|--0-0-0-0-0-0-0-0---5-5-5-5-5-5-5-5---0-0-0-0-0-0-0-0---5-5-5-5-5-5-5-5---|

e|--------------------------------------------------------------------------|
B|--------------------------------------------------------------------------|
G|--------------------------------------------------------------------------|
D|--7-7-7-7-7-7-7-7---7-7-7-7-7-7-7-7---7-7-7-7-7-7-7-7---7-7-7-7-7-7-7-7---|
A|--5-5-5-5-5-5-5-5---5-5-5-5-5-5-5-5---5-5-5-5-5-5-5-5---5-5-5-5-5-5-5-5---|
E|--0-0-0-0-0-0-0-0---5-5-5-5-5-5-5-5---0-0-0-0-0-0-0-0---5-5-5-5-5-5-5-5---|
[ Tab from: http://www.guitartabs.cc/tabs/s/snow_patrol/chocolate_tab_ver_2.html ]
e|--------------------------------------------------------------------------|
B|--------------------------------------------------------------------------|
G|--------------------------------------------------------------------------|
D|--7-7-7-7-7-7-7-7---7-7-7-7-7-7-7-7---7-7-7-7-7-7-7-7---7-7-7-7-7-7-7-7---|
A|--5-5-5-5-5-5-5-5---5-5-5-5-5-5-5-5---5-5-5-5-5-5-5-5---5-5-5-5-5-5-5-5---|
E|--0-0-0-0-0-0-0-0---5-5-5-5-5-5-5-5---0-0-0-0-0-0-0-0---5-5-5-5-5-5-5-5---|
 Lead Brake (guitar 2)
e|--------------------------------------------------------------------------|
B|--------------------------------------------------------------------------|
G|--------------------------------------------------------------------------|
D|--4--2-0---2--------------------------4--2-0---2--------------------------|
A|--------------2~----------------------------------2~----------------------|
E|--------------------------------------------------------------------------|
 Verse
e------------------------------------------------|
b---7-----7---------7-----10p7-------------------|
g-7-----7-----7---7-----7------7-----------------|
D------------------------------------------------|
A------------------------------------------------|
D------------------------------------------------|

e----------------------------------|-------------|
b---7-----7---------7-----10p7-----|---8-----8---|
g-7-----7-----7---7-----7------7---|-7-----7-----|
D----------------------------------|-------------|
A----------------------------------|-------------|
D----------------------------------|-------------|



| /  slide up
| \  slide down
| h  hammer-on
| p  pull-off
| ~  vibrato
| +  harmonic
| x  Mute note
=============================================================================
umm thats it at the mo. im workin' on the rest check again around december.
Peace Out :)
Comments