Snow Patrol - Chasing Cars Chords & Tabs

 

Chasing Cars Chords & Tabs

Snow Patrol Chords & Tabs

Version: 5 Type: Tab 0 ratings
1 star 2 stars 3 stars 4 stars 5 stars
comments

Chasing Cars Tab

   
Intro
e|--0--0--0--0--0--0--0--0--0--0--0--0------------------------------|
B|------------------------------------------------------------------|
G|-2--2--2--2--2--2--2--2--2--2--2--2-------------------------------|
D|------------------------------------------------------------------|
A|------------------------------------------------------------------|
E|------------------------------------------------------------------|

Verse
e|--0--0--0--0--0--0--0--0--0--0--0--0------------------------------|
B|------------------------------------------------------------------|
G|-2--2--2--2--1--1--1--1--1--1--1--1-------------------------------|
D|------------------------------------------------------------------|
A|------------------------------------------------------------------|
E|------------------------------------------------------------------|

e|--0--0--0--0--0--0--0--0--0--0--0--0--0--0--0--0------------------|
B|------------------------------------------------------------------|
G|------------------------------------------------------------------|
D|-4--4--4--4--4--4--4--4--2--2--2--2--2--2--2--2-------------------|
A|------------------------------------------------------------------|
E|------------------------------------------------------------------|

e|--0--0--0--0--0--0--0--0--0--0--0--0--0--0--0--0------------------|
B|------------------------------------------------------------------|
G|-2--2--2--2--2--2--2--2--1--1--1--1--1--1--1--1-------------------|
D|------------------------------------------------------------------|
A|------------------------------------------------------------------|
E|------------------------------------------------------------------|

e|--0--0--0--0--0--0--0--0--0--0--0--0--0--0--0--0------------------|
B|------------------------------------------------------------------|
G|-------------------------2--2--2--2--2--2--2--2-------------------|
D|-4--4--4--4--4--4--4--4-------------------------------------------|
A|------------------------------------------------------------------|
E|------------------------------------------------------------------|

Chorus
e|--0--0--0--0--0--0--0--0--0--0--0--0--0--0--0--0------------------|
B|------------------------------------------------------------------|
G|-2--2--2--2--2--2--2--2--1--1--1--1--1--1--1--1-------------------|
D|------------------------------------------------------------------|
A|------------------------------------------------------------------|
E|------------------------------------------------------------------|

Intro again, then verse and chorus 2 times

Bridge
e|--0--0--0--0--0--0--0--0--0--0--0--0--0--0--0--0------------------|
B|------------------------------------------------------------------|
G|-2--2--2--2--2--2--2--2--1--1--1--1--1--1--1--1-------------------|
D|------------------------------------------------------------------|
A|------------------------------------------------------------------|
E|------------------------------------------------------------------|
[ Tab from: http://www.guitartabs.cc/tabs/s/snow_patrol/chasing_cars_tab_ver_5.html ]
e|--0--0--0--0--0--0--0--0--0--0--0--0--0--0--0--0------------------|
B|------------------------------------------------------------------|
G|-------------------------2--2--2--2--2--2--2--2-------------------|
D|-4--4--4--4--4--4--4--4-------------------------------------------|
A|------------------------------------------------------------------|
E|------------------------------------------------------------------|

e|--0--0--0--0--0--0--0--0--0--0--0--0------------------------------|
B|------------------------------------------------------------------|
G|-2--2--2--2--2--2--2--2--2--2--2--2-------------------------------|
D|------------------------------------------------------------------|
A|------------------------------------------------------------------|
E|------------------------------------------------------------------|

e|--0--0--0--0--0--0--0--0--0--0--0--0------------------------------|
B|------------------------------------------------------------------|
G|-2--2--2--2--1--1--1--1--1--1--1--1-------------------------------|
D|------------------------------------------------------------------|
A|------------------------------------------------------------------|
E|------------------------------------------------------------------|

e|--0--0--0--0--0--0--0--0--0--0--0--0--0--0--0--0------------------|
B|------------------------------------------------------------------|
G|-------------------------2--2--2--2--2--2--2--2-------------------|
D|-4--4--4--4--4--4--4--4-------------------------------------------|
A|------------------------------------------------------------------|
E|------------------------------------------------------------------|

Chorus
         A
If I lay here 
          E
If I just lay here
              D                                 A
Would you lie with me and just forget the world? 

                  A
Forget what we're told 
              E
Before we get too old 
          D                               A
Show me a garden that's bursting into life

         A
All that I am 
           E
All that I ever was 
                D                                  A
Is here in your perfect eyes, they're all I can see 

             A
I don't know where 
               E
Confused about how as well 
                     D                                     A
Just know that these things will never change for us at all 


Outro/Chorus
e|--0--0--0--0--0--0--0--0--0--0--0--0--0--0--0--0------------------|
B|------------------------------------------------------------------|
G|-2--2--2--2--2--2--2--2--1--1--1--1--1--1--1--1-------------------|
D|------------------------------------------------------------------|
A|------------------------------------------------------------------|
E|------------------------------------------------------------------|

e|--0--0--0--0--0--0--0--0--0--0--0--0--0--0--0--0------------------|
B|------------------------------------------------------------------|
G|-------------------------2--2--2--2--2--2--2--2-------------------|
D|-4--4--4--4--4--4--4--4-------------------------------------------|
A|------------------------------------------------------------------|
E|------------------------------------------------------------------|











Comments