Snow Patrol - Chasing Cars Chords & Tabs

 

Chasing Cars Chords & Tabs

Snow Patrol Chords & Tabs

Version: 4 Type: Tab 0 ratings
1 star 2 stars 3 stars 4 stars 5 stars
comments

Chasing Cars Tab

   
Tabbed By: Chicken Dumplings (chckndmplngs)
Tuning: Standard

Verse x2
e|----------------|----------------|----------------|----------------|
B|----------------|----------------|----------------|----------------|
G|-9-9-9-9-9-9-9-9|-9-9-9-9-9-9-9-9|-9-9-9-9-9-9-9-9|-9-9-9-9-9-9-9-9|
D|7-7-7-7-7-7-7-7-|7-7-7-7-7-7-7-7-|6-6-6-6-6-6-6-6-|0-0-0-0-0-0-0-0-|
A|----------------|----------------|----------------|----------------|
E|----------------|----------------|----------------|----------------|

Pre-Chorus
e|----------------|
B|----------------|
G|-9-9-9-9-9-9-9-9|
D|7-7-7-7-7-7-7-7-|
A|----------------|
E|----------------|

Chorus Guitar 1
e|----------------------------------------------------------------------------|
B|----------------------------------------------------------------------------|
G|---------------------------------------77777777777777777--------------------|
D|-77777777777777777--66666666666666666--77777777777777777--77777777777777777-|
A|-77777777777777777--77777777777777777--55555555555555555--77777777777777777-|
E|-55555555555555555--44444444444444444---------------------55555555555555555-|

Chorus Guitar 2
e|----------------|----------------|----------------|----------------|
B|----------------|----------------|----------------|----------------|
G|-9-9-9-9-9-9-9-9|-9-9-9-9-9-9-9-9|-9-9-9-9-9-9-9-9|-9-9-9-9-9-9-9-9|
D|7-7-7-7-7-7-7-7-|6-6-6-6-6-6-6-6-|0-0-0-0-0-0-0-0-|7-7-7-7-7-7-7-7-|
A|----------------|----------------|----------------|----------------|
E|----------------|----------------|----------------|----------------|

Verse
e|----------------|----------------|----------------|----------------|
B|----------------|----------------|----------------|----------------|
G|-9-9-9-9-9-9-9-9|-9-9-9-9-9-9-9-9|-9-9-9-9-9-9-9-9|-9-9-9-9-9-9-9-9|
D|7-7-7-7-7-7-7-7-|6-6-6-6-6-6-6-6-|0-0-0-0-0-0-0-0-|7-7-7-7-7-7-7-7-|
A|----------------|----------------|----------------|----------------|
E|----------------|----------------|----------------|----------------|

e|----------------|----------------|----------------|----------------|
B|----------------|----------------|----------------|----------------|
G|-9-9-9-9-9-9-9-9|-9-9-9-9-9-9-9-9|-9-9-9-9-9-9-9-9|-9-9-9-9-9-9-9-9|
D|7-7-7-7-7-7-7-7-|6-6-6-6-6-6-6-6-|0-0-0-0-0-0-0-0-|7-7-7-7-7-7-7-7-|
A|----------------|----------------|----------------|----------------|
E|----------------|----------------|----------------|----------------|

Chorus Guitar 1
e|----------------------------------------------------------------------------|
B|----------------------------------------------------------------------------|
G|---------------------------------------77777777777777777--------------------|
D|-77777777777777777--66666666666666666--77777777777777777--77777777777777777-|
A|-77777777777777777--77777777777777777--55555555555555555--77777777777777777-|
E|-55555555555555555--44444444444444444---------------------55555555555555555-|
[ Tab from: http://www.guitartabs.cc/tabs/s/snow_patrol/chasing_cars_tab_ver_4.html ]
Chorus Guitar 2
e|----------------|----------------|----------------|----------------|
B|----------------|----------------|----------------|----------------|
G|-9-9-9-9-9-9-9-9|-9-9-9-9-9-9-9-9|-9-9-9-9-9-9-9-9|-9-9-9-9-9-9-9-9|
D|7-7-7-7-7-7-7-7-|6-6-6-6-6-6-6-6-|0-0-0-0-0-0-0-0-|7-7-7-7-7-7-7-7-|
A|----------------|----------------|----------------|----------------|
E|----------------|----------------|----------------|----------------|


Bridge x2 (this is actually what the piano plays...)
e|--9---------9---------9----------|--9---------9---------9----------|-17~|
B|----9--10-----9-10p7-----9--10---|----9--10-----9--9p7-----9--10---|----|
G|---------------------------------|---------------------------------|----|
D|---------------------------------|---------------------------------|----|
A|---------------------------------|---------------------------------|----|
E|---------------------------------|---------------------------------|----|

Chorus x2
e|----------------------------------------------------------------------------------------|
B|-10-10-10-10-10-10-10-10-10-10-10-10-10-10-10-10-10-10-10-10-10-10-10-10-10-10-10-10-10-|
G|-9--9--9--9--9--9--9--9--9--9--9--9--9--9--9--9--9--9--9--9--9--9--9--9--9--9--9--9--9--|
D|-7--7--7--7--7--7--7--7--7--7--7--7--7--6--6--6--6--6--6--6--6--0--0--0--0--0--0--0--0--|
A|----------------------------------------------------------------------------------------|
E|----------------------------------------------------------------------------------------|

Post Chorus:
e|--------------------------------------|
B|--------------------------------------|
G|--------------------------------------|
D|--7777--9999-11-11-11-11-11-11-11-11--|
A|--xxxx--xxxx-x--x--x--x--x--x--x--x---|
E|--5555--7777-9--9--9--9--9--9--9--9---|

Chorus x2
e|----------------------------------------------------------------------------------------|
B|-10-10-10-10-10-10-10-10-10-10-10-10-10-10-10-10-10-10-10-10-10-10-10-10-10-10-10-10-10-|
G|-9--9--9--9--9--9--9--9--9--9--9--9--9--9--9--9--9--9--9--9--9--9--9--9--9--9--9--9--9--|
D|-7--7--7--7--7--7--7--7--7--7--7--7--7--6--6--6--6--6--6--6--6--0--0--0--0--0--0--0--0--|
A|----------------------------------------------------------------------------------------|
E|----------------------------------------------------------------------------------------|

Post Chorus:
e|--------------------------------------|
B|--------------------------------------|
G|--------------------------------------|
D|--7777--9999-11-11-11-11-11-11-11-11--|
A|--xxxx--xxxx-x--x--x--x--x--x--x--x---|
E|--5555--7777-9--9--9--9--9--9--9--9---|

Outro:
e|----------------|----------------|----------------|----------------|
B|----------------|----------------|----------------|----------------|
G|-9-9-9-9-9-9-9-9|-9-9-9-9-9-9-9-9|-9-9-9-9-9-9-9-9|-9-9-9-9-9-9-9-9|
D|7-7-7-7-7-7-7-7-|6-6-6-6-6-6-6-6-|0-0-0-0-0-0-0-0-|7-7-7-7-7-7-7-7-|
A|----------------|----------------|----------------|----------------|
E|----------------|----------------|----------------|----------------|
Comments