Snot Rockets - Song In B Chords & Tabs

 

Song In B Chords & Tabs

Snot Rockets Chords & Tabs

Version: 1 Type: Tab 0 ratings
1 star 2 stars 3 stars 4 stars 5 stars
comments

Song In B Tab

YOU/LOOKIN AT ME
LOOKIN AT YOU/YEAH
WHAT DO YOU SEE/WOULD YOU APPROVE
OF ME AND YOU/OF ME AND YOU
I/DON'T WANAN SAY/YOUR RUNNIN AWAY
HAD IT TO HERE/TIRED OF COMPLAINTS
WHAT DO YOU SAY/WHAT DO YOU SAY

CHORUS:
AHHHHH-I DON'T CARE(2X)

I'M/COMING AROUND/DON'T BE PUTTIN ME DOWN
SMASHIN GLASS/I'M LOVIN TAHT SOUND
DON'T TURN AROUND/DON'T TURN AROUND
YOU/LOOKIN AT ME/YOU WANNA FIT IN
WHO WOULD YOU BE/IF YOU CAN'T BE YOU
WHO WOULD YOU BE/WHO WOULD YOU BE


[ Tab from: http://www.guitartabs.cc/tabs/s/snot_rockets/song_in_b_tab.html ]
VERSE MUSIC:
e-----------------------------------------------
b-----------------------------------------------
g-----------------------------------------------
d-----9--8---------9--8-----9--8----------------
a--9--7--6---9--9--7--6--9--7--6--9-------------
E--7---------7--7--------7--------7-------------




CHORUS:

AHHHHHH I DON'T CARE(STRUM THE "A" POWER CHORD UNTIL AFTER HE SINGS "CARE")


e------------------------------------------------
b------------------------------------------------
g------------------------------------------------
d------------------------------------------------
a----7-------------------------------------------
E----5-------------------------------------------
Comments