Snot - Stoopid Chords & Tabs

 

Stoopid Chords & Tabs

Snot Chords & Tabs

Version: 1 Type: Bass Tab 0 ratings
1 star 2 stars 3 stars 4 stars 5 stars
comments

Stoopid Bass Tab

------------------------------------
D------------------------3-----------
A----5-3h5------55-3h5-h5-3h5--------
E--0---------0-0---------------------

G------------------------------------
D-----------------------3h5---------
A----5-3h5---------3h5-----3h5-----
E--0--------0-0-3h5----------------
[ Tab from: http://www.guitartabs.cc/tabs/s/snot/stoopid_btab.html ]
G-----------------------------------
D----------------------3------------
A---5-3h5-----55-3h5-h5-3h5---------
E--0-------0-0----------------------

G-----------------------------------
D--------------3-5-(5)--3-3-3-------
A---5-3h5----------------5-5-5-3-5--
E--0-------0-0----------------------

( ) bend note
Comments