Snot - Snot Chords & Tabs

 

Snot Chords & Tabs

Snot Chords & Tabs

Version: 1 Type: Bass Tab 0 ratings
1 star 2 stars 3 stars 4 stars 5 stars
comments

Snot Bass Tab

SONG: SNOT
BAND:SNOT
tabbed by pimpdaddysugarnutz@hotmail.com

INTRO
G:-------
D:-------
A:-------
D:--9\0--

BEFORE VERSE
A:--3-3-----
D:------3-3-0-0

VERSE
A:-------------3--------------3---
D:--0--1-1--1-3---0-1-1-1-------3--
[ Tab from: http://www.guitartabs.cc/tabs/s/snot/snot_btab.html ]
BEFORE DRUM SOLO
A:--3-------
D:-----5---2-

BASS SOLO
A:------------------3------------------3-------------------3---------3
D:-0--1-1-1---1-3---0--1-1-1----1--3--0--1-1-1---1-3-0-0--6-5-4-3-2-1

A:------------------3------------------3-----------------3-----------5-5-----3-3
D:-0--1-1-1---1-3---0--1-1-1-

Comments