Snot - Reaching Out Chords & Tabs

 

Reaching Out Chords & Tabs

Snot Chords & Tabs

Version: 1 Type: Bass Tab 0 ratings
1 star 2 stars 3 stars 4 stars 5 stars
comments

Reaching Out Bass Tab

this song is a tribute of lynn straight of the album "straight up"
song-reaching out
band-snot
tabbed by rob

i tabbed the bass portion, but the guitar is bassicly
the same thing just played in power chords.

standard tuning

intro/verse

sustain each note for app. 2 beats
g-------
d-------
a---2--2
e-4--1--

chorus
g------------------------------
d------------------------------
a-5-5-3-5-3-5-----3-5-3-2-0-2-3 X 2
e-------------2-2--------------
[ Tab from: http://www.guitartabs.cc/tabs/s/snot/reaching_out_btab.html ]
part at the end of chorus      (part 1)
g---------------------------------------
d---------------------------------------     im pretty close to having the exact
a--------------2-2-22-22-2--------------     numbers of notes to play but u can 
e-0-0-0-0-3-33---------------0-0-3-33-2-2    throw in a few notes here and there


(your light shines for us to see).....(part 2)
g----------------------------------
d----------------------------------
a-----2-22-------------------------
e-3-3-----2-2-02-02-0-123----------


after playing above play part 1 during guitar solo

thats basically it......cheers
Comments