Snoop Doggy Dogg - Got Beef Chords & Tabs

 

Got Beef Chords & Tabs

Snoop Doggy Dogg Chords & Tabs

Version: 1 Type: Tab 0 ratings
1 star 2 stars 3 stars 4 stars 5 stars
comments

Got Beef Tab

   

Artist-Snoop Dogg and EASTSIDAZ
Song-Got Beef
Tabber- Funky6Gangzta' a.k.a Funk Traveler a.k.a. John Bowman

[ Tab from: http://www.guitartabs.cc/tabs/s/snoop_doggy_dogg/got_beef_tab.html ]
e|------------------------|
b|------------------------|
g|------------------------|
D|--3-7--------------3-7--|
A|-5---------------5------|
E|------------------------|
 you got beef with D-P-G

e|-------------------------|
b|-------------------------|
g|---3-7------------3-7----|
D|-5--------------5--------|
A|-------------------------|
E|-------------------------|
 holla at me   tha D-O-G


FO' SHIZZLE MA' NIZZLE!!

FOLK LUV!
   |
 /_|_\
   |
 G | D
Comments