Snoop Dogg - Beautiful Chords & Tabs

 

Beautiful Chords & Tabs

Snoop Dogg Chords & Tabs

Version: 1 Type: Chords 0 ratings
1 star 2 stars 3 stars 4 stars 5 stars
comments

Beautiful Chords

   
Bass line

e ---9-----10----0
B ---10----12----8
G ---11----12----9
D ---11----12----9
A ---9-----10----7
E ---x-----x-----x

     F#    G     Em

Simple rhythm repeated through whole song, just listen to the song 
to work out the timings.

chorus melody 
[ Tab from: http://www.guitartabs.cc/tabs/s/snoop_dogg/beautiful_crd.html ]
e------5--3--2--3--2-----5--3--2--3--2-----0-----------
B---3-----------------3-----------------3-----2-----0--
G------------------------------------------------2-----
D------------------------------------------------------
A------------------------------------------------------
E------------------------------------------------------

e---------------(9)-(9)-(5)-(5)
B---3--3--7--7--14--14--10--10
G-----------------------------
D-----------------------------
A-----------------------------
E-----------------------------

there you go , easy , pete's incubus tab is poor

Josh
Comments