Sneddon David - Stop Living The Lie Chords & Tabs

 

Stop Living The Lie Chords & Tabs

Sneddon David Chords & Tabs

Version: 1 Type: Tab 0 ratings
1 star 2 stars 3 stars 4 stars 5 stars
comments

Stop Living The Lie Tab

this is just the chorus, i play it on an accoustic-

---------------------------------------------------------------------
---------------------------------------------------------------------
--5--5--2--5--5--5--4--5--2--5--7--5--2-----------------------------
------------------------------------------5--3-----------------------
---------------------------------------------------------------------
---------------------------------------------------------------------

repeat once
[ Tab from: http://www.guitartabs.cc/tabs/s/sneddon_david/stop_living_the_lie_tab.html ]
---------------------------------------------------------------
---------------------------------------------------------------
--3--7--5--2--2--------3--7--5--9--9--10--10--10--7--9--10-----
-----------------5--3------------------------------------------
---------------------------------------------------------------
---------------------------------------------------------------

---------------------------------------------------------------
---------------------------------------------------------------
--10--9--10--2--2--5--2--0-------------------------------------
----------------------------3----------------------------------
---------------------------------------------------------------
---------------------------------------------------------------


this is ok- it is done by ear,
it'll do until someone does a better one!
Any questions or comments michelleduggy@hotmail.com
Talk To Ye Later (",)
Comments