Sneaker Pimps - Sick Chords & Tabs

 

Sick Chords & Tabs

Sneaker Pimps Chords & Tabs

Version: 2 Type: Tab 0 ratings
1 star 2 stars 3 stars 4 stars 5 stars
comments

Sick Tab

   
 ok. this is the whole tab for 'sick.' I looked at the other one and saw that it didn't
have everything in it, so I decided to re-tab it for anyone who wants to play the whole
thing. this is my first tab, but it all sounds pretty correct. I usually play with an
acoustic guitar because that's the way chris plays it in the song, and it sounds a little
better than with an electric.
I'd listen to the song to get the timing down.

Intro: Play 4 Times
A:
e|------------------------------------------|
B|------------------------------------------|
G|------------------------------------------|
D|-12-x-x--9-x-x-9----11--12--5-5-5--5-5-5-5|
A|-10-x-x--7-x-x-7-----9--10--5-5-5--5-5-5-5|
E|-10-x-x--7-x-x-7-----9--10--3-3-3--0-3-0-3|
[ Tab from: http://www.guitartabs.cc/tabs/s/sneaker_pimps/sick_tab_ver_2.html ]
First Half of Verse: This could also be played by a bass guitar, but sounds just as good with an acoustic.
B:
e|--------------------------------------------|
B|--------------------------------------------|
G|--------------------------------------------|
D|--------------------------------------------|
A|--------------------------------------------|
E|--0--0--7/10----0-0-10/12-------------------|

Second Half of Verse (Same as Intro):
C:
e|------------------------------------------|
B|------------------------------------------|
G|------------------------------------------|
D|-12-x-x--9-x-x-9----11--12--5-5-5--5-5-5-5|
A|-10-x-x--7-x-x-7-----9--10--5-5-5--5-5-5-5|
E|-10-x-x--7-x-x-7-----9--10--3-3-3--0-3-0-3|

Chorus: each chord in this should be played 4 times. strum between each chord, so the tempo never stops
D:
e|--8-x-3-x-10-x-5-------------------------------------|
B|--8-x-3-x-10-x-5-------------------------------------|
G|--9-x-4-x-11-x-6-------------------------------------|
D|-10-x-5-x-12-x-7-------------------------------------|
A|-10-x-5-x-12-x-7-------------------------------------|
E|--8-x-3-x-10-x-5-------------------------------------|

Ending of Chorus: play the 10, 11, 12 part fast.
E:
e|--------------------------------------------|
B|--------------------------------------------|
G|--------------------------------------------|
D|--------------------------------------------|
A|--------------------------------------------|
E|-0--0-10/-11/-12----------------------------|
Comments