Snapcase - Coagulate Chords & Tabs

 

Coagulate Chords & Tabs

Snapcase Chords & Tabs

Version: 1 Type: Tab 0 ratings
1 star 2 stars 3 stars 4 stars 5 stars
comments

Coagulate Tab

   
-------------------------------------------------------
SNAPCASE- Coagulate
-------------------------------------------------------
Tabbed by Seth Halperin.
Also, check out my band Black Out, at www.blackoutmusic.tk. 
-------------------------------------------------------

This is a sick song. They use some weird effects to get this 
crazy sort of chainsaw sound, which only adds to the songs intensity.

Tuning: Standard (E-A-D-G-B-e)
-------------------------------------------------------------------

Intro-                                                  x4
e-------0----0---0---------------------------------------
B-------0----0---0---------------------------------------
G-------0----0---0---------------------------------------
D--4-4-----4---4---44---555/444--------------------------
A--4-4-----4---4---44---555/444--------------------------
E--2-2-----2---2---22---333/222--------------------------


Verse1(Same as in the intro only just repeated over)   x4
e-------0----0---0---------------------------------------
B-------0----0---0---------------------------------------
G-------0----0---0---------------------------------------
D--4-4-----4---4---44---555/444--------------------------
A--4-4-----4---4---44---555/444--------------------------
E--2-2-----2---2---22---333/222--------------------------
No tickets to this show, baby
Just one to a room
Are you up for a blood transfusion?
Commit and go


e-------0----0---0------
B-------0----0---0------
G-------0----0---0------
D--4-4-----4---4---44---
A--4-4-----4---4---44---
E--2-2-----2---2---22---
Who shot the shot to break the blood clot?!

[ Tab from: http://www.guitartabs.cc/tabs/s/snapcase/coagulate_tab.html ]
Verse2 (Same as everything else, very simple)          x4
e-------0----0---0---------------------------------------
B-------0----0---0---------------------------------------
G-------0----0---0---------------------------------------
D--4-4-----4---4---44---555/444--------------------------
A--4-4-----4---4---44---555/444--------------------------
E--2-2-----2---2---22---333/222--------------------------
You can die, maybe and test your resolve
Slaves are saved through converted vessels
Of the most sacred blood

e-------0----0---0------
B-------0----0---0------
G-------0----0---0------
D--4-4-----4---4---44---
A--4-4-----4---4---44---
E--2-2-----2---2---22---
Who shot the shot to break the blood clot?!



Who shot?!
e-----------------------------------------
B-----------------------------------------
G-----------------------------------------
D-----------------------------------------
A----0-----0----0---2---------------------
E-0h2--0-2--0h2---0----333-222------------


Who shot the shot to break the blood clot?!
Who shot the shot to break the blood clot?!

Verse3                                               x4
e-------0----0---0---------------------------------------
B-------0----0---0---------------------------------------
G-------0----0---0---------------------------------------
D--4-4-----4---4---44---555/444--------------------------
A--4-4-----4---4---44---555/444--------------------------
E--2-2-----2---2---22---333/222--------------------------
John the Baptist's head was taken
For his faith was strong
Can you defend the didactic army
Without breaking down?

Without breaking...
e-----------------------------------------
B-----------------------------------------
G-----------------------------------------
D-----------------------------------------
A----0-----0----0---2---------------------
E-0h2--0-2--0h2---0----333-222------------

Continues on and then goes back to that same riff
e-------0----0---0------
B-------0----0---0------
G-------0----0---0------
D--4-4-----4---4---44---
A--4-4-----4---4---44---
E--2-2-----2---2---22---

End on that
Very simple, easy song.
Comments