Snapcase - Caboose Chords & Tabs

 

Caboose Chords & Tabs

Snapcase Chords & Tabs

Version: 1 Type: Tab 0 ratings
1 star 2 stars 3 stars 4 stars 5 stars
comments

Caboose Tab

#----------------------------------PLEASE NOTE--------------------------------#
#This file is the author's own work and represents their interpretation of the#
#song. You may only use this file for private study, scholarship, or research.#
#-----------------------------------------------------------------------------#

Date: Sun, 7 Jun 1998 19:14:59 +0800
From: Doug Paterson 
Subject: s/snapcase/caboose.tab

Caboose-Snapcase (Progression Through Unlearning)
Tabbed by: Michael Paterson

-DRUM FILL-

Intro
(Guitar 1)
              3x                                    1x   
e------------------------------------|-----------------------------------|
B------------------------------------|-----------------------------------|
G------------------------------------|-----------*----*------------------|
D-6-6-6------------------------------|-3-3---3-3-3----4b-----------------|
A-6-6-6------------------------------|-3-3---3-3-3----4b-----------------|
E-4-4-4------------------------------|-1-1---1-1-1----2b-----------------|
(Where * appears switch on 4th time) 

(Guitar 2)

e------------------------------------|------------------------------------|
B------------------------------------|------------------------------------|
G------------------------------------|------------------------------------|
D-----6------------------------------|------------------------------------|
A---6---6----------------------------|------------------------------------|
E------------------------------------|------------------------------------|

Verse 
(Guitar 1)

e------------------------------------|------------------------------------|
B------------------------------------|------------------------------------|
G------------------------------------|------------------------------------|
D-3-3-x--x--x----------x---x---x--6-4|-3-3-x--x--x----------x---x---x--6-4|
A-3-3-x--x--x----------x---x---x--6-4|-3-3-x--x--x----------x---x---x--6-4|
E-1-1-x--x--x----------x---x---x--4-2|-1-1-x--x--x----------x---x---x--4-2|

(Guitar 2)-on 3rd & 4th

e------------------------------------|------------------------------------|
B---------18------18------18------18-|---------18------18------18------18-|
G-----1717----1717----1717----1717---|-----1717----1717----1717----1717---|
D------------------------------------|------------------------------------|
A------------------------------------|------------------------------------|
E------------------------------------|------------------------------------|

Chorus
(Guitar 1 & 2)
[ Tab from: http://www.guitartabs.cc/tabs/s/snapcase/caboose_tab.html ]
e------------------------------------|------------------------------------|
B------------------------------------|------------------------------------|
G-6-6-6-6-6--6-6-6--9--4-------------|------------------------------------|
D-6-6-6-6-6--6-6-6--9--4-------------|------------------------------------|
A-4-4-4-4-4--4-4-4--7--2-------------|------------------------------------|
E------------------------------------|------------------------------------|

Bridge
(Guitar 1)
	       3x				      1x
e------------------------------------|------------------------------------|
B------------------------------------|------------------------------------|
G------------------------------------|------------------------------------|
D-3--3--3----------------------------|-3--3--3--4b------------------------|
A-3--3--3----------------------------|-3--3--3--4b------------------------|
E-1--1--1----------------------------|-1--1--1--2b------------------------|

Outro-4x
(Guitar 1 & 2) 
                                                  
e------------------------------------|------------------------------------|
B------------------------------------|------------------------------------|
G------------------------------------|------------------------------------|
D-3--3--3----------------------------|-3--3--3--4b------------------------|
A-3--3--3----------------------------|-3--3--3--4b------------------------|
E-1--1--1--2/4\2---------------------|-1--1--1--2b------------------------|
  (both)  (Gt.1)		       (both)  (Gt.2)

-4x
e------------------------------------|------------------------------------|
B------------------------------------|------------------------------------|
G------------------------------------|------------------------------------|
D-3--3--3----------------------------|-3--3--3----------------------------|
A-3--3--3----------------------------|-3--3--3----------------------------|
E-1--1--1----------------------------|-1--1--1----------------------------|

-1x
e------------------------------------|
B------------------------------------|
G------------------------------------|
D-3-3-3------------------------------|
A-3-3-3------------------------------|
E-1-1-1------------------------------|

Order:			

Intro:    4x
Verse 1:  4x
Chorus:   1x
Verse 2:  4x
Chorus:   1x
Bridge:   2x
Verse 3:  4x
Chorus:   2x
Bridge:   1x
Outro:    1x

		    LYRICS
V1:Do you know yourself, do you know the others. 
   Can you pull the weight that rides on another's shoulders. 
   And once you've lost yourself to the acceptance mask, 
   well could you find yourself, it's not a simple task. 

CH:Self-inherence, freedom, comes from within. 

V2:Take a different track, it's time to see what you are made of. 
   Can you expose yourself, can you peel off another layer. 
   And will you make the time, the time to take control, 
   because only you can save yourself, only you can save your soul. 

V3:And once you save yourself, insecurities will die, genuine qualities, 
   and true character will shine. 
   Now that you belong to you, what will the others think, well, 
   soon they'll follow you, you'll see they're all so weak. 

BR/O:Come on, can you, let go, can you, be you.  



Since I can't find any Snapcase tabs on the net, 
I thought I'd tab CABOOSE from their most recent album.
PLAY THIS SONG WITH HEAVY DISTORTION!!!!!!
(email me at patersod@singnet.com.sg if I messed up) 
Comments