Snapcase - Caboose Chords & Tabs

 

Caboose Chords & Tabs

Snapcase Chords & Tabs

Version: 1 Type: Bass Tab 0 ratings
1 star 2 stars 3 stars 4 stars 5 stars
comments

Caboose Bass Tab

-------------------------------------------------------------------------------
			     Caboose - Snapcase
-------------------------------------------------------------------------------

By: Alex Matuszczak
Email: okcom_alex@hotmail.com

Tuning: Standard but snapcase plays it in Eflat!

   the intro x4
G|---------------------------------------------------------------------------|
D|---------------------------------------------------------------------------|
A|---------------------------------------------------------------------------|
E|-4-4-4---4-4-4---4-4-4--1-1-1-1-1------------------------------------------|

G|---------------------------------------------------------------------------|
D|---------------------------------------------------------------------------|
A|---------------------------------------------------------------------------|
E|-4-4-4---4-4-4---4-4-4--1-1-1-1-1------------------------------------------|

G|---------------------------------------------------------------------------|
D|---------------------------------------------------------------------------|
A|---------------------------------------------------------------------------|
E|-4-4-4---4-4-4---4-4-4--1-1-1-1-1------------------------------------------|
[ Tab from: http://www.guitartabs.cc/tabs/s/snapcase/caboose_btab.html ]
G|---------------------------------------------------------------------------|
D|---------------------------------------------------------------------------|
A|---------------------------------------------------------------------------|
E|-4-4-4---4-4-4---4-4-4--1-1-1-1-1-2----------------------------------------|


Verse x8
G|---------------------------------------------------------------------------|
D|---------------------------------------------------------------------------|
A|---------------------------------------------------------------------------|
E|-1-1-----------------------------------------------------------------------|


Chorus x1
G|---------------------------------------------------------------------------|
D|---------------------------------------------------------------------------|
A|---------------------------------------------------------------------------|
E|-9>--0-7-0-2---back to 
verse-----------------------------------------------|

Bridge part
G|---------------------------------------------------------------------------|
D|---------------------------------------------------------------------------|
A|---------------------------------------------------------------------------|
E|-1-1--1-1-1----keep repeating this until the end of the 
song---------------|


*email me for more snapcase tabs, comments, corrections or suggestions. Im 
not sure of this tab. It could be wrong but oh well, I'm 15, I don't see 
anyone else tabbing!

Comments