Snafu - Little Girl Chords & Tabs

 

Little Girl Chords & Tabs

Snafu Chords & Tabs

Version: 1 Type: Chords 0 ratings
1 star 2 stars 3 stars 4 stars 5 stars
comments

Little Girl Chords

   
Artist:SNAFU
Song:LITTLE GIRL
Lyrics by:SOEREN T.
Music by:DANNY P.


Intro/verse

Guitar 1.(only Intro)
e--10--8----------------------10--8---------------------8---------------------------------
H---------11--10--8--10--11----------11--10--8--10--11------------------------------------
G-----------------------------------------------------------------------------------------
D-----------------------------------------------------------------------------------------
A-----------------------------------------------------------------------------------------
E-----------------------------------------------------------------------------------------

Guitar 2.

Dmaj7
A6
Cadd9
G#
    Dmaj7        A6            Cadd9             G#
e-----5-----------2--------------3----------------4----------------------------------------
H-----7-----------2--------------3----------------4----------------------------------------
G-----6-----------2--------------5----------------5----------------------------------------
D-----7-----------2--------------5----------------6----------------------------------------
A-----5-----------0--------------3----------------6----------------------------------------
E-------------------------------------------------4----------------------------------------
[ Tab from: http://www.guitartabs.cc/tabs/s/snafu/little_girl_crd.html ]
Chorus
Am
Dm
Cadd9
Hm
     Am        Dm       Cadd9        Hm                         
e-----0---------5---------3-----------2-----------------------------------------------------
H-----1---------6---------3-----------3-----------------------------------------------------
G-----2---------7---------5-----------4-----------------------------------------------------
D-----2---------7---------5-----------4-----------------------------------------------------
A-----0---------5---------3-----------2-----------------------------------------------------
E-------------------------------------------------------------------------------------------

Lyrics

Verse 1.
Who are you little girl
Who walks alone on the road
Blinded by the blowing wind
but still can you see the rain
and still so full of power
so you can follow the roads

Chorus.
the blue night is standing still but still
your soul are caried by the wind
that wind wich is standing still
but tomorrow I'll stand up
stand up and still know you are not here

Verse 2.
Little girl, you who says
That where we walk there will come a flower
little girl, where you walk
the light will step back
little girl, where you walk
you will hear a scream but never find it

Verse 3.
quiet I'm shaking in my bed of death
shaking of fear, shaking for you
do you here I'm shaking walking here alone
poor poor girl with your open arms
you walk your seek but only find the heat of death

Form:
Intro
Verse 1.
Chorus
Verse 2.
Chorus
Verse 3.
Solo
Chorus
Intro/Outro
Comments