Snafu - Fuck You Chords & Tabs

 

Fuck You Chords & Tabs

Snafu Chords & Tabs

Version: 3 Type: Tab 0 ratings
1 star 2 stars 3 stars 4 stars 5 stars
comments

Fuck You Tab

Artist:    Snafu
Song:      Fuck You
Lyrics by: Soeren T.
Music by:  Jacob D./Danny P.


Bas starts with
e------------------------------------------------------------------------------------|
B------------------------------------------------------------------------------------|
G------------------------------------------------------------------------------------|
D------------------------------------------------------------------------------------|
A---1/33333333--55555555-------------------------------------------------------------|
E-------------------------55555555--1111--3333---------------------------------------|
[ Tab from: http://www.guitartabs.cc/tabs/s/snafu/fuck_you_tab_ver_3.html ]
THen the guitar comes in
Palm mute
e------------------------------------------------------------------------------------|
B------------------------------------------------------------------------------------|
G---55555555--77777777---------------------------------------------------------------|
D---55555555--77777777--77777777--3333--5555-----------------------------------------|
A---33333333--55555555--77777777--3333--5555-----------------------------------------|
E-----------------------55555555--1111--3333-----------------------------------------|
Then the same without palm mute.

Verse
e------------------------------------------------------------------------------------|
B------------------------------------------------------------------------------------|
G----------------------------54------------------------------------------------------|
D--555554555555555555545555--54------------------------------------------------------|
A--555554555555555555545555--32------------------------------------------------------|
E--333332333333303333323333----------------------------------------------------------|
Repeat 2 times

Chorus

e------------------------------------------------------------------------------------|
B------------------------------------------------------------------------------------|
G--9999999999999999--7777777777777777--5555555555555555--7777777777777777------------|
D--9999999999999999--7777777777777777--5555555555555555--7777777777777777------------|
A--7777777777777777--5555555555555555--3333333333333333--5555555555555555------------|
E------------------------------------------------------------------------------------|
Repeat 2 times.

Intro
Verse
Chorus
Verse
Chorus
Intro/outro
Comments